Guitar Tabs, Chords and Lyrics


After Midnight   J J Cale



After Midnight solo (album version)

|---------------------------------------------------------5---------------------|
|-------------------6—6-(6)------------(8)b10b8---6----------6---8---6--8—(6)7--|
|--(7)b9b7-----5-7------------7-5h6--------------------7------------------------|
|-------------------------------------------------------------------------------|
|-------------------------------------------------------------------------------|
|-------------------------------------------------------------------------------|
								
|-------------------------------------------------------------------------------|
|-----------------------------(6)b7---------------(6)b7---8h10---8-8---6-8—(6)7-|
|--7-5--7-----------5-7—-5-7----------7-5----7-7--------------------------------|
|--------------5-7--------------------------------------------------------------|
|-------------------------------------------------------------------------------|
|-------------------------------------------------------------------------------|

|---------5---------------------------------------------------------------------|
|-------------7—-8b10------8-6—-8-6---------------6-----------------------------|
|--7-7 ------------------------------7----5—-7-7------7-5—-7-7------------------|
|-------------------------------------------------------------------------------|
|-------------------------------------------------------------------------------|
|-------------------------------------------------------------------------------|


Important: The song above is NOT stored on the Chordie server. The original song is hosted at www.guitaretab.com. Chordie works as a search engine and provides on-the-fly formatting. Chordie does not index songs against artists'/composers' will. To remove this song please click here.

This song is displayed as text-only. Transposing and tuning is only available for chordpro-songs.

Login - add to songbook

Rating click stars to rate

Layout
Accuracy

SHARE PAGE  




You need to log in to post comments