"yes"; ?> Anything Acoustic by Calling - guitar chords, guitar tabs and lyrics - chordie

Anything Acoustic

Calling

e|-----------0*-------0*----------0*----------0*------0--------------|

B|---------0*--------0*---------5-----------0*-------0---------------|
G|--------1---------2---------6-----------4---------2----------------|
D|------2--------- 2--------6-----------4----------2-----------------|
A|----2----------0--------4-----------2-----------0------------------|
E|--0----------------------------------------------------------------|

 E2A2C#mB9A9
e|---0------0------0-----0-----0-------------------------------------|
B|---0------14-----5-----0-----0-------------------------------------|
G|---13-----14-----6-----4-----2-------------------------------------|
D|---14-----14-----6-----4-----2-------------------------------------|
A|---14-----0------4-----2-----0-------------------------------------|
E|---0---------------------------------------------------------------|

CHORDS USED IN CHORUS:

 EAC#mB9
e|----0----0---0---0-------------------------------------------------|
B|----0----0---0---0-------------------------------------------------|
G|----1----2---6---4-------------------------------------------------|
D|----2----2---6---4-------------------------------------------------|
A|----2----0---4---2-------------------------------------------------|
E|----0--------------------------------------------------------------|


 E2
I will be there
 A2
Always waiting
 E2
Waiting for you
 A2
To let me inside
 E2
Where your fire burns
 A2
In a city of angels
 C#mB9A9
Just like a river rushing straight into the sea
 C#mB9A9
I'm the one thing meant for you and you for me

(CHORUS:)
 E
Whatever you want
 A
Whatever you need
 C#mB9A9
Whatever it takes, I'll do anything

(DO THE VERSE'S CHORDS)
And as you sleep
Eyes to the window
I'm watching you dream
Well are you dreaming of me?
So why can't you see
You're all that matters
You know if this earth should crack
I'll be your solid ground
I will be there to catch you when you fall down

(CHORUS) (DO CHORDS SAME AS CHORUS)

If I have to crawl
Get down on my knees
Whatever it takes, I'll go anything
(BRIDGE)
 AC#mB9
I'd take the stars right out of the sky for you
 AC#mB9
I'd end the world give you the sun, the moon
 AC#mE
For all of time, forever loving you

***************************************************************************

thats all buddy!!!!
enjoy!!!
godbless!!!
suggestions/comments?!!
always play with your heart!!!!


A A2 A9 B9 C#m E E2
variations - click chord images
Transpose chords:
Tuning:
Cool service:
View: Size:
A  A  A
Rating:
Layout:
  • Currently 1.3/5 Stars.
  • 1
  • 2
  • 3
  • 4
  • 5
 
Accuracy:
  • Currently 4.3/5 Stars.
  • 1
  • 2
  • 3
  • 4
  • 5
 
click stars to rate
Chordie recommends:
Learn to play songs at Jamplay.com with video guitar lessons
Songbook:
Login to add this song to your songbook
Support the artist
Preview/buy this song
MSN Music
Why this non-profit ad?

 
login to add comments/video/corrections