Chordie logo

Si Seulement Je Pouvais Lui Manquer  Calogero

-------------------------------------------------------------------------



-------------------------------------------------------------------------













e|-------0------0------0------0--| Em= xx2000             F#sus4= xx4422  


B|-----0------0------0------0----| F#sus4/B= x244x2       A6sus2= x044x2


G|---0------0------0------0------| Em6= 0x202x


D|-2------2------2------2--------|


A|-------------------------------|


E|-------------------------------|



  [Em]              [F#sus4]              [F#sus4/B]              [A6sus2]               [Em6]                     
e|-------0------0------2------2------2------2------2------2-------------|
B|-----0------0------2------2-----------------------------------0h2-----|
G|---0------0------4------4--------4------4------4------4-----0---------|
D|-2------2------4------4--------4------4------4------4-----2-----------|
A|-----------------------------2------2------0------0-------------------|
E|----------------------------------------------------------0-----------|


|1st time>>> |2nd time>>>
F#sus4 F#sus4/B |A6sus2 |Bm x4 beats
e|--------------2------2------2------2------2------2-|------------------|
B|-----0h2----2------2-------------------------------|-------3------3---|
G|---0------4------4--------4------4------4------4---|-----4------4-----|
D|-2------4------4--------4------4------4------4-----|---4------4-------|
A|----------------------2------2------0------0-------|-2------2---------|
E|---------------------------------------------------|------------------|


VERSE1
[Em]Il suffirait simplement[F#sus4]....Qu'il m'app[F#sus4/B]elle....Qu'il m'appe[A6sus2]lle
[Em6]D'où vient ma vie?....C[F#sus4]ertainement pas [F#sus4/B]du ciel   [A6sus2]
[Em]Lui raconter mon enfance[F#sus4]....Son abse[F#sus4/B]nce....Tous les j[A6sus2]ours
[Em6]Comment briser le [F#sus4]silence....Qui [Bm]l'entoure ?

CHORUS
Gmaj7 G6 Gmaj7= 320002
Aussi vrai que de loin je lui parle G6= 320000
A Dmaj7 F#m7/C# F#m7/C#= x42222
J'apprends tout seul a faire mes armes Bmadd11= x24430
Em Bsus2= x24422
Aussi vrai qu'j'arrête pas d'y penser
Si seu[F#7]lement, je pouvais lui[Bmadd11] manquer[Bm]
Est-ce qu'il va me faire un[Gmaj7] signe[G6]?
[A]  Manquer d'amour n'est-ce pas un [Dmaj7]crime?[F#m7/C#]
J'ai qu'une prière à lui a[Em]dresser
Si seul[F#7]ement, je pouvais lui [Bm]man[Bmadd11]quer    [Bsus2]


VERSE2 (play as verse1)
Je vous dirais simplement....qu'à part ça....tout va bien
A part d'un père....je ne manque de rien
Je vis dans un autre monde....je m'accroche tous les jours
Je briserai le silence....qui m'entoure

CHORUS (as above)

INTERLUDE
[G6]    [A]   [Dmaj7]       [F#m7/C#]         [Em]    [F#7]     [Bm]     
CHORUS
Est-ce qu'il va me faire un[Gmaj7] signe[G6]?
[A]  Manquer d'amour n'est-ce pas un [Dmaj7]crime?[F#m7/C#]
J'ai qu'une prière à lui a[Em]dresser
Si seul[F#7]ement, je pouvais lui manquer[Bm]
					e|------------------------------2
					B|-------3------3------3------3-3
					G|-----4------4------4------4---4
					D|---4------4------4------4-----4
					A|-2------2------2------2-------2
					E|-------------------------------


=========================================================================

Important: The song above is NOT stored on the Chordie server. The original song is hosted at www.guitaretab.com. Chordie works as a search engine and provides on-the-fly formatting. Chordie does not index songs against artists/composers will. To remove this song please click here.

A A6sus2 Bm Bmadd11 Bsus2 Dmaj7 Em Em6 F#7 F#m7/C# F#sus4 F#sus4/B G6 Gmaj7
variations - click chord images

Login - add to songbook

Transpose chords

Tuning

Rating click stars to rate

Layout
Accuracy

SHARE PAGE  

You need to log in to post comments