eToCache5 = ""; ?> Si Seulement Je Pouvais Lui Manquer by Calogero - guitar chords, guitar tabs and lyrics - chordie

Si Seulement Je Pouvais Lui Manquer

Calogero

-------------------------------------------------------------------------

-------------------------------------------------------------------------
e|-------0------0------0------0--| Em= xx2000 F#sus4= xx4422
B|-----0------0------0------0----| F#sus4/B= x244x2 A6sus2= x044x2
G|---0------0------0------0------| Em6= 0x202x
D|-2------2------2------2--------|
A|-------------------------------|
E|-------------------------------|

 EmF#sus4F#sus4/BA6sus2Em6
e|-------0------0------2------2------2------2------2------2-------------|
B|-----0------0------2------2-----------------------------------0h2-----|
G|---0------0------4------4--------4------4------4------4-----0---------|
D|-2------2------4------4--------4------4------4------4-----2-----------|
A|-----------------------------2------2------0------0-------------------|
E|----------------------------------------------------------0-----------|


|1st time>>> |2nd time>>>
F#sus4 F#sus4/B |A6sus2 |Bm x4 beats
e|--------------2------2------2------2------2------2-|------------------|
B|-----0h2----2------2-------------------------------|-------3------3---|
G|---0------4------4--------4------4------4------4---|-----4------4-----|
D|-2------4------4--------4------4------4------4-----|---4------4-------|
A|----------------------2------2------0------0-------|-2------2---------|
E|---------------------------------------------------|------------------|


VERSE1
 EmF#sus4F#sus4/BA6sus2
 Il suffirait simplement....Qu'il m'appelle....Qu'il m'appelle
 Em6F#sus4F#sus4/BA6sus2
 D'où vient ma vie?....Certainement pas du ciel    
 EmF#sus4F#sus4/BA6sus2
 Lui raconter mon enfance....Son absence....Tous les jours
 Em6F#sus4Bm
 Comment briser le silence....Qui l'entoure ?

CHORUS
Gmaj7 G6 Gmaj7= 320002
Aussi vrai que de loin je lui parle G6= 320000
A Dmaj7 F#m7/C# F#m7/C#= x42222
J'apprends tout seul a faire mes armes Bmadd11= x24430
Em Bsus2= x24422
Aussi vrai qu'j'arrête pas d'y penser
 F#7Bmadd11Bm
Si seulement, je pouvais lui manquer 
 Gmaj7G6
Est-ce qu'il va me faire un signe?
 ADmaj7F#m7/C#
   Manquer d'amour n'est-ce pas un crime? 
 Em
J'ai qu'une prière à lui adresser
 F#7BmBmadd11Bsus2
Si seulement, je pouvais lui manquer     

VERSE2 (play as verse1)
Je vous dirais simplement....qu'à part ça....tout va bien
A part d'un père....je ne manque de rien
Je vis dans un autre monde....je m'accroche tous les jours
Je briserai le silence....qui m'entoure

CHORUS (as above)

INTERLUDE
 G6ADmaj7F#m7/C#EmF#7Bm
CHORUS
 Gmaj7G6
Est-ce qu'il va me faire un signe?
 ADmaj7F#m7/C#
   Manquer d'amour n'est-ce pas un crime? 
 Em
J'ai qu'une prière à lui adresser
 F#7Bm
Si seulement, je pouvais lui manquer 
					e|------------------------------2
					B|-------3------3------3------3-3
					G|-----4------4------4------4---4
					D|---4------4------4------4-----4
					A|-2------2------2------2-------2
					E|-------------------------------


=========================================================================


A A6sus2 Bm Bmadd11 Bsus2 Dmaj7 Em Em6 F#7 F#m7/C# F#sus4 F#sus4/B G6 Gmaj7
variations - click chord images
Transpose chords:
Tuning:
Cool service:
View: Size:
A  A  A
Rating:
Layout:
  • Currently 3.2/5 Stars.
  • 1
  • 2
  • 3
  • 4
  • 5
 
Accuracy:
  • Currently 3.4/5 Stars.
  • 1
  • 2
  • 3
  • 4
  • 5
 
click stars to rate
Chordie recommends:
Learn how to play guitar at JamPlay.com
Songbook:
Login to add this song to your songbook
Support the artist
Preview/buy this song
MSN Music
Why this non-profit ad?

 
login to add comments/video/corrections