Guitar Tabs, Chords and Lyrics


Autopilot   Cambio



autopilot by cambio
Tabbed by Timothy Salera
Tuning: (E,A,D,G,B,e)

intro:

e|---------------------------------------------------------------|
B|---------------------------------------------------------------|
G|---------------------------------------------------------------|
D|---7-----------------------------------------------------------|
A|---5------7---7-----------10-------------9---------------------|
E|----------5---5------------8-------------7---------------------|

verse and chorus: The strumming is different just listen to the song to know the strumming.

e|---------------------------------------------------------------|
B|---------------------------------------------------------------|
G|---------------------------------------------------------------|
D|-----7---------------------------------------------------------|
A|-----5----------7------------8-----------5---------------------|


Important: The song above is NOT stored on the Chordie server. The original song is hosted at www.guitaretab.com. Chordie works as a search engine and provides on-the-fly formatting. Chordie does not index songs against artists'/composers' will. To remove this song please click here.

This song is displayed as text-only. Transposing and tuning is only available for chordpro-songs.

Login - add to songbook

Rating click stars to rate

Layout
Accuracy

SHARE PAGE  




You need to log in to post comments