Guitar Tabs, Chords and Lyrics


Wembley  Candyskins



[--2--]                                    
[--2--]-x---
[-----]-x---
[--3--]-x---
[-1---]-x---
Intro:
[G]   [Cadd9]       [Am]    [C]                       

Verse 1:
[G]Here's a song from [Cadd9]me to you,
I [Am]hope you unders[C]tand me.
I [G]can't forget that [Cadd9]day we met,
I [Am]loved you oh-so [C]madly.
And[G] all the things I [Cadd9]used to do,
I [Am]gave them up so [C]gladly - well,


Chorus 1:
[Am]   [C]  [D]Yes I love you.
[Am]     [C]Well I t[D]hink I love you.
[Am]   [C]  [D]Let's just say,
     There's [Bm]something in your [G]smile.


Verse 2:
[G]Do you remember [Cadd9]getting drunk,
On [Am]Uncle Derek's [C]brandy.
[G]We were sick, yeah [Cadd9]we were young,
I [Am]wanted you so [C]badly.


Chorus 1


Guitar Solo:
G Cadd9 Am C x4


Chorus 1


Verse 3:
[G]Tell me why you [Cadd9]spoke to him,
You [Am]shouldn't be so [C]friendly.
My [G]violent temper [Cadd9]strikes again,
I n[Am]eed you to de[C]fend me.
It's[G] 196[Cadd9]6 again - a [Am]love as big as
[C]WEMBLEY - WEMBLEY [Am]- TELL [C]ME


Chorus 2:
     [D]Yes I love you.
[Am]    [C] I've al[D]ways loved you -
[Am]   [C]  [D]let's just say,
     There's [Bm]something in your s[G]mile.


Outro:
G Cadd9 Am C x2

In your [G]smi[Cadd9]le...  [Am]    [C]

[G]Smi[Cadd9]le...  [Am]    [C]
[G]                                     
Key to symbols:


p Pull off
h Hammer on
~ Vibrate the note
/ Slide up
\ Slide down
^ Bend note up one


Guitar Solo:

[G]                 [Cadd9]            [Am]                  [C]                                     
E------------------------------------------------------------|
B-15--15--15--15--17--15--15\--------------------------------|
G------------------------------------------------------------|
D-----------------------------10-9--10-9--10-9--12-----------|
A---------------------------------------------------10--10\--|
E------------------------------------------------------------|


  [G]           [Cadd9]                                                                        
E------------------------------------------------------------|
B------------------------------------------------------------|
G------------------------------------------------------------|
D--5h7p5--7^--7^p5--5h7--------------------------------------|
A----------------------h5--5---------------------------------|
E------------------------------------------------------------|

   [Am]            [C]             [G]              [Cadd9]                                           
E------------------------------------------------------------|
B------------------------------------------------------------|
G--4--4--5--4--7--7--0--0------------------------------------|
D--5--5--5--5--5--5--5--5---9-9--10-10p9--12-12--14-14p12----|
A------------------------------------------------------------|
E------------------------------------------------------------|

   [Am]               [C]        [G]                     [Cadd9]                                      
E------------------------------------------------------------|
B--19--17--15--17---------4h5h7--4h5h7--4h5h7--4h5h7--4h5h7--|
G-----------------14~----------------------------------------|
D------------------------------------------------------------|
A------------------------------------------------------------|
E------------------------------------------------------------|

          [Am]               [C]                                                            
E------------------19----------19----------------------------|
B-4h5h7---------15----17----15----17~\-----------------------|
G---------16-16----------16----------------------------------|
D----------------------------------------7^p5----------------|
A------------------------------------------------------------|
E------------------------------------------------------------|				

Important: The song above is NOT stored on the Chordie server. The original song is hosted at www.guitaretab.com. Chordie works as a search engine and provides on-the-fly formatting. Chordie does not index songs against artists/composers will. To remove this song please click here.

Text color:
Chord color:
Chord grids: 
Font size:    
Page size: 

Am Bm C Cadd9 D G
variations - click chord images

Login - add to songbook

Transpose chords

Tuning

Rating click stars to rate

Layout
Accuracy

SHARE PAGE  




You need to log in to post comments