Wembley

Candyskins

 --2--
 --2--
 -x---

 -----
 -x---

 --3--
 -x---

 -1---
 -x---

Intro:
 GCadd9AmC

Verse 1:
 GCadd9
 Here's a song from me to you,
 AmC
hope you understand me.
 GCadd9
can't forget that day we met,
 AmC
loved you oh-so madly.
 GCadd9
And all the things I used to do,
 AmC
gave them up so gladly - well,

Chorus 1:
 AmCD
      Yes I love you.
 AmCD
      Well I think I love you.
 AmCD
      Let's just say,
 BmG
     There's something in your smile.

Verse 2:
 GCadd9
 Do you remember getting drunk,
 AmC
On Uncle Derek's brandy.
 GCadd9
 We were sick, yeah we were young,
 AmC
wanted you so badly.

Chorus 1

Guitar Solo:
G Cadd9 Am C x4

Chorus 1

Verse 3:
 GCadd9
 Tell me why you spoke to him,
 AmC
You shouldn't be so friendly.
 GCadd9
My violent temper strikes again,
 AmC
I need you to defend me.
 GCadd9Am
It's 1966 again - a love as big as
 CAmC
 WEMBLEY - WEMBLEY - TELL ME

Chorus 2:
 D
     Yes I love you.
 AmCD
      I've always loved you -
 AmCD
      let's just say,
 BmG
     There's something in your smile.

Outro:
G Cadd9 Am C x2

 GCadd9AmC
In your smile...       

 GCadd9AmC
 Smile...       

 G
Key to symbols:

p Pull off
h Hammer on
~ Vibrate the note
/ Slide up
\ Slide down
^ Bend note up one

Guitar Solo:

 GCadd9AmC
E------------------------------------------------------------|
B-15--15--15--15--17--15--15\--------------------------------|
G------------------------------------------------------------|
D-----------------------------10-9--10-9--10-9--12-----------|
A---------------------------------------------------10--10\--|
E------------------------------------------------------------|


 GCadd9
E------------------------------------------------------------|
B------------------------------------------------------------|
G------------------------------------------------------------|
D--5h7p5--7^--7^p5--5h7--------------------------------------|
A----------------------h5--5---------------------------------|
E------------------------------------------------------------|


 AmCGCadd9
E------------------------------------------------------------|
B------------------------------------------------------------|
G--4--4--5--4--7--7--0--0------------------------------------|
D--5--5--5--5--5--5--5--5---9-9--10-10p9--12-12--14-14p12----|
A------------------------------------------------------------|
E------------------------------------------------------------|


 AmCGCadd9
E------------------------------------------------------------|
B--19--17--15--17---------4h5h7--4h5h7--4h5h7--4h5h7--4h5h7--|
G-----------------14~----------------------------------------|
D------------------------------------------------------------|
A------------------------------------------------------------|
E------------------------------------------------------------|


 AmC
E------------------19----------19----------------------------|
B-4h5h7---------15----17----15----17~\-----------------------|
G---------16-16----------16----------------------------------|
D----------------------------------------7^p5----------------|
A------------------------------------------------------------|
E------------------------------------------------------------|				



Am Bm C Cadd9 D G
variations - click chord images
Transpose chords:
Tuning:
Cool service:
View: Size:
A  A  A
Rating:
Layout:
  • Currently 5/5 Stars.
  • 1
  • 2
  • 3
  • 4
  • 5
 
Accuracy:
  • Currently 2/5 Stars.
  • 1
  • 2
  • 3
  • 4
  • 5
 
click stars to rate
Chordie recommends:
Learn how to play guitar at JamPlay.com
Songbook:
Login to add this song to your songbook
Support the artist
Preview/buy this song
MSN Music
Why this non-profit ad?

 
login to add comments/video/corrections