Guitar Tabs, Chords and Lyrics


La Planta  Caos

[Em]  Si tu piensas que me haz roto la maceta[C],
  no te preocupes,[D] ya me acostumbré a regarla.[Em]
  Y ya te me estabas pasando de verde,[C]
  mañana te secas[D], yo me consigo otra planta.[Em]


VERSO 1
Pero que sea des[C]értica, oh s[D]i,[Dsus4]      [D]  des[Em]ért[Esus4]ica,  [Em]
pero que sea des[C]értica, oh s[D]i,[Dsus4]      [D]  des[Em]ért[Esus4]ica   [Em]


Así si la riego o n[C]o, no me pre[D]oc[Dsus4]upo,  [D]
porque va a est[G]ar m[D]uy bi[Em]en,
así si la riego o n[C]o, ya no me ap[D]ur[Dsus4]o,
como la regué contigo[G].  [D]   [Em]
Y que un solo jardin[C]ero, recoja el fr[D]ut[Dsus4]o,    [D]
no como t[G]u que ya est[D]abas recog[Em]ida
y si es que otro se an[C]ima,
pues buena s[B7]uerte, a ver si no se espina[Em].
Y te pareces tan[C]to, a[D] una enredadera,[Em]   [Esus4]      [Em]
en cualquier tronco te at[C]oras, y le das v[D]ueltas,
con tus ram[G]itas que se enr[D]edan donde qui[Em]eran
y entre tanto ramer[C]ío, ya te apod[B7]amos, la ramera[Em].
SOLO
C D G D Em x2

e|-------------7-7-------------7br-5br-----|
B|-8-7-8-7-8-7-----8br--8-7br----------8br-|
G|-----------------------------------------|
D|-----------------------------------------|
A|-----------------------------------------|
E|-----------------------------------------|
e|-----5-7------------10b12-10b12r10----------------------|
B|-5h8------10r8-10-8------------------7h8-8-8--7-7-7--5--|
G|--------------------------------------------------------|
D|--------------------------------------------------------|
A|--------------------------------------------------------|
E|--------------------------------------------------------|



Y que un solo jardin[C]ero, recoja el fr[D]ut[Dsus4]o,    [D]
no como t[G]u que ya est[D]abas recog[Em]ida
y si es que otro se an[C]ima,
pues buena s[B7]uerte, a ver si no se espina[Em].
Y te pareces t[C]anto [D]amor, a una enredad[Em]era[Esus4],     [Em]
en cualquier tronco te at[C]oras, y le das v[D]ueltas,
con tus ram[G]itas que se enr[D]edan donde qui[Em]eran
y entre tanto ramer[C]ío, ya te apod[B7]amos, la ramera[Em].
Pero que sea des[C]értica, oh s[D]i,[Dsus4]      [D]  des[Em]ért[Esus4]ica,  [Em]
pero que sea des[C]értica, oh s[D]i,[Dsus4]      [D]  des[Em]ért[Esus4]ica,  [Em]
e|-/12-12-10-12-10---------------|
B|-----------------12-10---------|
G|-----------------------12------|
D|--------------------------9br--|
A|-------------------------------|
E|-------------------------------|


Pero que sea des[C]értica, oh s[D]i,[Dsus4]      [D]  des[Em]ért[Esus4]ica,  [Em]
Pero que sea des[C]értica, oh s[D]i,[Dsus4]      [D]  des[Em]ért[Esus4]ica,  [Em]

[Em]¡Eh! ¡[Em]Eh!
OUTRO
e|-------------------------------------------|
B|-----6-------------------------------------|
G|-5/7----7-7/9------7-9-7-------------------|
D|---------------7h9-------9-8-7-------------|
A|-------------------------------10-7-5h6h7--|
E|-------------------------------------------|
e|-------------------------------------|
B|-------------------------------------|
G|-----7-9-7--7/11-11-11-11-11br--9br--|
D|-7h9---------------------------------|
A|-------------------------------------|
E|-------------------------------------|
e|-----------------------------|
B|-----------------------------|
G|-----7-9-7-------------------|
D|-7h9-------9-8-7-------------|
A|-----------------10-7-5h6h7--|
E|-----------------------------|
e|------------5/7-7-7-7-7-------|
B|------------5/7-7-7-7-7-------|
G|-----7-9-7---------------9br--|
D|-7h9--------------------------|
A|------------------------------|
E|------------------------------|
e|-----------------------------|
B|-----------------------------|
G|-----7-9-7-------------------|
D|-7h9-------9-8-7-------------|
A|-----------------10-7-5h6h7--|
E|-----------------------------|
e|-------------15p12-15p12-15p12-15p12-15p12--15b17r12--|
B|------------------------------------------------------|
G|-----7-9-7--------------------------------------------|
D|-7h9--------------------------------------------------|
A|------------------------------------------------------|
E|------------------------------------------------------|
e|-----------------------------|
B|-----------------------------|
G|-----7-9-7-------------------|
D|-7h9-------9-8-7-------------|
A|-----------------10-7-5h6h7--|
E|-----------------------------|
e|---------------------------------|
B|---------------------------------|
G|-----7-9-7--7/11-11-11-12br-9br--|
D|-7h9-----------------------------|
A|---------------------------------|
E|---------------------------------|
e|---------------------------------------------------------------------------------12\--|
B|----------12--15r12-15r12-15r12-15r12-15r12-15r12-15r12-15r12-15/17-17171717br--------|
G|-11-12-15-----------------------------------------------------------------------------|
D|--------------------------------------------------------------------------------------|
A|--------------------------------------------------------------------------------------|
E|--------------------------------------------------------------------------------------|

Important: The song above is NOT stored on the Chordie server. The original song is hosted at www.guitaretab.com. Chordie works as a search engine and provides on-the-fly formatting. Chordie does not index songs against artists'/composers' will. To remove this song please click here.

Text color:
Chord color:
Chord grids: 
Font size:    
Page size: 

B7 C D Dsus4 Em Esus4 G
variations - click chord images

Login - add to songbook

Transpose chords

Tuning

Rating click stars to rate

Layout
Accuracy

SHARE PAGE  




You need to log in to post comments