Guitar Tabs, Chords and Lyrics


A Life Less Ordinary  Carbon Leaf

---------



---------

---------
[G] Live a life less ordinary
  Life a life extraordinary with [C]me
[G] Life a life less sedentary
  Live a life evolutionary with [C]me
  Well I h[G]ate to be a bother
  But it's you and there's no other, I do bel[C]ieve
You can call me naive, but...
  I k[G]now me very well, at least as far as I can tell
  And I know what I [C]need

---------

Chorus (D C D C ... -- Am Em C D G)

  The [D]night you came into my life
  Well it [C]took the bones of me, took the bones of me
  You [D]blew away my storm and strife
  And [C]shook the bones of me, shook the bones of me
[D] By the way, I[C] do know why you[D] stayed away
  I will [Am]keep [Em]tongue [C]tied [D]next time

---------

Verse 2 (G C G C ...)

[G] Live a life less ordinary
  Life a life extraordinary with [C]me
  My [G]face had said too much before our hands could even touch
  To greet a "hel[C]lo", so much for going slow
  A [G]little later on that year, I told you that I loved you dear
  [C]What do you know, this you weren't prepared to hear
  I'm a [G]saddened man, I'm a broken boy, I'm a toddler with a complex toy
  I've f[C]allen apart, since the ambush of your heart

---------

Repeat Chorus (D C D C ... -- Am Em C D G)

---------

Bridge

  [Em]Honey understand, [Em]honey unders[C]tand
  [Am]I won't m[Em]ake de[C]mands
  [Em]Honey understand, [Em]honey unders[C]tand
  W[Am]e could w[C]alk with[Em]out a pl[D]an
  [Em]Honey understand (honey), [Em]honey unders[C]tand
  [Am]I wont r[Em]est in s[C]tone, all alone
  [Em]Honey understand, [Em]honey unders[C]tand
  I[Am]'m all r[Em]eady to [D]go, but you already know

  e|-----------------|-----------------|-----------------|-----------------|
  B|-0h1-3-----1-----|--------0--------|-----3/5---3-----|-----------------|
  G|-----------------|-4\--2-----0-----|-----------------|-0---------------|
  D|-----------------|-----------------|-----------------|-----------------|
  A|-----------------|-----------------|-----------------|-----------------|
  E|-----------------|-----------------|-----------------|-----------------|
---------

Verse 2 (G C G C ...)

[G] Live a life less ordinary
  Life a life extraordinary with [C]me

  e|---------1p0-----|-----0h3---------|
  B|-----1h3-----3p0-|-1/3-------------|
  G|-0h2-------------|-----------------|
  D|-----------------|-----------------|
  A|-----------------|-----------------|
  E|-----------------|-----------------|


  If [G]I could name you in this song, would it make you smile and sing along
  [C]This is the goal, to get into your sould
  If [G]I could make you dance for joy, could that be the second chance decoy
  The [C]bird-in-hand I would need to help you understand

---------

Repeat Chorus (D C D C ... -- Am Em C D G)

Important: The song above is NOT stored on the Chordie server. The original song is hosted at www.guitaretab.com. Chordie works as a search engine and provides on-the-fly formatting. Chordie does not index songs against artists'/composers' will. To remove this song please click here.

Text color:
Chord color:
Chord grids: 
Font size:    
Page size: 

Am C D Em G
variations - click chord images

Login - add to songbook

Transpose chords

Tuning

Rating click stars to rate

Layout
Accuracy

SHARE PAGE  




You need to log in to post comments