Guitar Tabs, Chords and Lyrics


Daddys Car  Cardigans



---------------------------------------------------------

     [Dm]    [C]    [Am]     [Gm]     [F]    [Fmaj7]        [Fm]     [E7]     [A7]                                         
 e---1---0---0----3----1----0------1----0----0-----------
 b---3---1---1----3----1----1------1----0----2-----------
 g---2---0---2----3----2----2------1----1----0-----------
 d---0---2---2----5----3----3------3----0----2-----------
 a-------3---0----5----3-----------3----2----0-----------
 e----------------3----1-----------1----0----------------

(1st part) (2nd part)
 e---------------------------|--------------------------|
 b------------10---12-----8--|---6-5---6---5------------|
 g---------10-----------9----|-------7---------7-5------|
 d---10h12-------------------|--------------------------|
 a---------------------------|--------------------------|
 e---------------------------|--------------------------|
---start---

(1st part)
(2x)
[Dm]   We took off that [C]sunny day
[Dm]   packed our things and [C]went away
[Dm]   me and friends in [C]daddy's car
[Dm]   to find out how [C]summers are
[Fmaj]   found a card to [Gm]send from wher[Fm]ever we went[C]
   From [Am]Luxembourg to [Gm]Rome
   from [F]Berlin to the mo[C]on
   from [Am]Paris to Laus[Gm]anne
   from [F]Athens to the s[C]un
   our [Am]car became a sp[Gm]acecraft
   [F]flashing through the w[C]orld
   crashed [Am]down in Amster[Gm]dam[F] [-] [E7] [A7]
(2x)
[Fmaj]   found a card to [Gm]send from wher[Fm]ever we went[C]
   From [Am]Luxembourg to [Gm]Rome
   from [F]Berlin to the mo[C]on
   from [Am]Paris to Laus[Gm]anne
   from [F]Athens to the s[C]un
   our [Am]car became a sp[Gm]acecraft
   [F]flashing through the w[C]orld
Am Gm F (E7 A7)-(4x)
crashed down in Amsterdam
    [Dm]   We'll take off some [C]rainy day
[Dm]   pack our things and [C]go away
[Dm]   families and [C]hotelbars
[Dm]   to find out how [C]summers are
    [Fmaj]   found a card to [Gm]send from wher[Fm]ever we went[C]
   From [Am]Luxembourg to [Gm]Rome
   from [F]Berlin to the mo[C]on
   from [Am]Paris to Laus[Gm]anne
   from [F]Athens to the s[C]un
   our [Am]car became a sp[Gm]acecraft
   [F]flashing through the w[C]orld
   crashed [Am]down in Amster[Gm]dam[F] [-] [E7] [A7]
 e----------------------------||
 b------------10---12---------||
 g---------10---------12------||
 d---10h12---------------10---||
 a----------------------------||
 e----------------------------||
---end---

Important: The song above is NOT stored on the Chordie server. The original song is hosted at www.guitaretab.com. Chordie works as a search engine and provides on-the-fly formatting. Chordie does not index songs against artists'/composers' will. To remove this song please click here.

Text color:
Chord color:
Chord grids: 
Font size:    
Page size: 

A7 Am C Dm E7 F Fm Fmaj Fmaj7 Gm
variations - click chord images

Login - add to songbook

Transpose chords

Tuning

Rating click stars to rate

Layout
Accuracy

SHARE PAGE  




You need to log in to post comments