Tomorrow

Cardigans



 CDmFFmAEmGGmBm
 e---0---1---1---1---0---0---3---3---2---
 b---1---3---1---1---2---0---3---3---3---
 g---0---2---2---1---2---0---4---3---4---
 d---2---0---4---4---2---2---5---5---4---
 a---3-------4---4---0---2---5---5---2---
 e-----------1---1-------0---3---3-------
---start---

 CDmFFm
    tomorrow   
 CDmFFm
   tomorrow   
(play twice)
 ADm
 e-------7-----7---------------------|-------5-----5------------------||
 b---7-9---7-9------------9----------|---5-6---5-6----------5--------:||
 g-------------------9-11---11-9-----|------------------5-7---7-5-7---||
 d----------------11-----------------|----------------7---------------||
 a-------------------------------12--|-------------------------------:||
 e-----------------------------------|--------------------------------||

tomorrow...
 A
    someone's thinking of her
 Dm
    a fifteen hour trip away
 A
    life is so much slower
 Dm
    than a charter trip delay
 CDmFFm
   tomorrow,   she won't feel half of this 
 CDmFFm
   tomorrow    morning is a sugar kiss 
 EmDmC
   tomorrow, heavenly no sorrow
 DmFFm
    she will lose gravity 
(play twice)
 ADm
 e-------7-----7---------------------|-------5-----5------------------||
 b---7-9---7-9------------9----------|---5-6---5-6----------5--------:||
 g-------------------9-11---11-9-----|------------------5-7---7-5-7---||
 d----------------11-----------------|----------------7---------------||
 a-------------------------------12--|-------------------------------:||
 e-----------------------------------|--------------------------------||

tomorrow...
 A
    someone's thinking of her
 Dm
    through the hazy scenery
 A
    life is blue as water
 Dm
    when you're missing somebody
 CDmFFm
   tomorrow,   she won't feel half of this 
 CDmFFm
   tomorrow    morning is a sugar kiss 
 EmDmEmDm
   tomorrow, heavenly no sorrow 
 EmDm
   tomorrow...
 C-BmA
 nterlude>
 DEmGGm
   tomorrow,   she won't feel half of this 
 DEmGGm
   tomorrow    morning is a sugar kiss 
 DEmGGm
   tomorrow...  
 DEmGD
   tomorrow...      yeah!

A Bm C D Dm Em F Fm G Gm
variations - click chord images
Transpose chords:
Tuning:
Cool service:
View: Size:
A  A  A
Rating:
Layout:
  • Currently 2.7/5 Stars.
  • 1
  • 2
  • 3
  • 4
  • 5
 
Accuracy:
  • Currently 2.8/5 Stars.
  • 1
  • 2
  • 3
  • 4
  • 5
 
click stars to rate
Chordie recommends:
Learn how to play guitar at JamPlay.com
Songbook:
Login to add this song to your songbook
Support the artist
Preview/buy this song
MSN Music
Why this non-profit ad?

 
login to add comments/video/corrections