Anticipation

Carly Simon

e|------5--5--0--2-2-|  

B|------7--8--3--3-3-|
G|------7--7--2--2-2-|
D|------0--0--0--0-0-|
A|------0--0--0--0-0-|
E|-0-0--0--0--0--0-0-|
e|-2-0-----2---------0---------0---------|
B|-3-3-----2---------2---------0---------|
G|-2-2-----0---------2---------0---------|
D|-0-0-----0---------0---------0---------|
A|-0-0-----5---------0---------2---------|
E|-0-0-----5---------0---------2---------|

 DGD
 We | can never know about the days to come
 DGA
 But | we think about them anyway, yeah
 DGD
 And I wonder | if I'm really with you now
 GEmAD
Or just chasin' after some finer day

Chorus

 GAD
 Anticipation, anticipation
 GEm
Is makin' me late
 GA
Is keepin' me waitin'

And I tell you| how easy it feels to be with you
And how right | your arms feel around me
But I | I rehearsed those words just late last night
When I was thinkin' about how right tonight might be

chorus

And tomorrow | we might not be together
I'm no prophet | Lord I don't know nature's ways
So I'll try | and see into your eyes right now
And stay right here 'cause these are the good old days

These are the good old days
 GEmAD
And stay right here 'cause these are the good old days

(D intro thing over these lines)
These are the good old days
These are the good old days
These are the good old days
These are...the good old days

--Listen to it, feel it, be the song.

Peace

Steve


A D Em G
variations - click chord images
Transpose chords:
Tuning:
Cool service:
View: Size:
A  A  A
Rating:
Layout:
  • Currently 2.5/5 Stars.
  • 1
  • 2
  • 3
  • 4
  • 5
 
Accuracy:
  • Currently 2.8/5 Stars.
  • 1
  • 2
  • 3
  • 4
  • 5
 
click stars to rate
Chordie recommends:
Learn how to play guitar at JamPlay.com
Songbook:
Login to add this song to your songbook
Support the artist
Preview/buy this song
MSN Music
Why this non-profit ad?

 
login to add comments/video/corrections