I Take My Chances

Mary Chapin Carpenter

-------------------------------------------------------


 GDCCGDCC
 (intro)                 

 GDEmC
 I took a walk in the rain one day
 GDCC
On the wrong side of the tracks   
 GDEmC
I stood on the rails till I saw that train
 GDCC
Just to see how my heart would react   
 EmBmCC
Now some people say that you shouldn't tempt fate
 EmDCC
And for them I can not disagree   
 GDEmC
But I never learned nothing from playing it safe
 GG/BCC
I say fate should not tempt me     

 CGDCCGDCC
I take my chances;      I don't mind working without a net   
 CGDCCGDCC
I take my chances;      I take my chances every chance I get   

I sat alone in the dark one night, tuning in by remote
I found a preacher who spoke of the light but there was brimstone in his throat
He'd show me the way according to him in return for my personal check
I flipped the channel back to CNN, and I lit another cigarette

I take my chances; yes, forgiveness doesn't come with a debt
I take my chances; I take my chances every chance I get

 GDCCGDCCGDCCGDCC
 (guitar solo)                                       

I've crossed lines of words and wire, and both have cut me deep
I've been frozen out and I've been on fire, and the tears are mine to weep
But I can cry until I laugh, or laugh until I cry
So cut the deck right in half, I'll play from either side

I take my chances; I pay my dollar and I place my bet
I take my chances; I take my chances every chance I get
I take my chances; yeah, I don't cling to remorse or regret
I take my chances; I take my chances every chance I get
I take my chances...

(Repeat G D C C; end on G.)

(Concert ad-lib lyrics:)
No remorse, no regrets
I chewed another Nicorette
I ordered up some crepes Suzette
I found Elvis on the Internet
I went camping with a young cadet
He showed me his bayonet
I looked at him and said, "you should get an Erector set"
Who needs a boyfriend, you can get a pet

TAB:

The electric guitar actually plays this in C with no capo. These are the
right notes; I'm not sure about the exact fingerings.

 CGFCGF
E ----0-----------|----------------|----------------|----------------|
B --1-----3-----1-|------1---------|----1---0-------|----------------|
G 0---------4-----|--2-------0---0-|--0-------0---2-|------0---------|
D ------------5---|----3-------3---|2-----------0---|--3-------3---3-|
A ----------------|----------------|----------------|----3-------3---|
E ----------------|----------------|----------------|----------------|

^ . ^ . ^ . ^ . ^ . ^ . ^ . ^ . ^ . ^ . ^ . ^ . ^ . ^ . ^ . ^ .

Here it is in G, if you want to play it with the capo on the 5th fret:

 GDCGDC
E ----7---5-----3-|------3---------|----3---2-----0-|----------------|
B --8-------7-----|--5-------3---3-|--3-------3-----|------3---------|
G 7-----------7---|----5-------5---|4-----------2---|--5-------5--5--|
D ----------------|----------------|----------------|----5-------5---|
A ----------------|----------------|----------------|----------------|
E ----------------|----------------|----------------|----------------|

^ . ^ . ^ . ^ . ^ . ^ . ^ . ^ . ^ . ^ . ^ . ^ . ^ . ^ . ^ . ^ .

- Adam Schneider, schneider@pobox.com


Bm C D Em F G G/B
variations - click chord images
Transpose chords:
Tuning:
Cool service:
View: Size:
A  A  A
Rating:
Layout:
  • Currently 2.4/5 Stars.
  • 1
  • 2
  • 3
  • 4
  • 5
 
Accuracy:
  • Currently 3.5/5 Stars.
  • 1
  • 2
  • 3
  • 4
  • 5
 
click stars to rate
Chordie recommends:
Check out JamPlay.com for online video guitar lessons
Songbook:
Login to add this song to your songbook
Support the artist
Preview/buy this song
MSN Music
Why this non-profit ad?

 
login to add comments/video/corrections