Guitar Tabs, Chords and Lyrics


Lets Go   Cars



'Let's Go' by The Cars
K-Mart Theme For 2008

E|--------------------------|
B|--------------------------|
g|---------7---7-6----------|
d|----7-9----------9-7------|
a|--------------------------|
e|--------------------------| 

E|--------------------------|
B|--------------------------|
g|---------7---7-6-9--------|
d|----7-9-------------------|
a|--------------------------|
e|--------------------------| 

E|--------------------------|
B|--------------------------|
g|---------7---7-6----------|
d|----7-9----------9-7------|
a|--------------------------|
e|--------------------------| 

E|--------------------------|
B|--------------------------|
g|--------------------------|
d|----5-4-----5-4-----------|
a|--------5-------5---------|


Important: The song above is NOT stored on the Chordie server. The original song is hosted at www.guitaretab.com. Chordie works as a search engine and provides on-the-fly formatting. Chordie does not index songs against artists/composers will. To remove this song please click here.

This song is displayed as text-only. Transposing and tuning is only available for chordpro-songs.

Login - add to songbook

Rating click stars to rate

Layout
Accuracy

Jango Player

SHARE PAGE  




You need to log in to post comments