Chordie logo


Know This X   Casey Jones



The open chords at the end of the 2nd breakdown vary and throw some harmonics in there too.

/ - Slide
..- Palm Mute
h - Hammer On
p - Pull Off
X - Scratch/Dead Note

Intro/Verse x1
e|----------------------------------------------------------------|
B|----------------------------------------------------------------|
G|----------------------------------------------------------------|
D|-0-0-0-0--10-8-7h8---7-7-10-9---5-5-10-9---7-7-10-9---5-5-10-9--|
A|-0-0-0-0--10-8-7h8---5-5--8-7---3-3--8-7---5-5--8-7---3-3--8-7--|
D|-0-0-0-0--10-8-7h8----------------------------------------------|

e|-------------------------------------------------------------|
B|-------------------------------------------------------------|
G|-7-7-7-7-7-7-7-7--5-5-5-5-5-5-5-5--7-7-7-7-7-7-7-7--5--5--5--|
D|-7-7-7-7-7-7-7-7--5-5-5-5-5-5-5-5--7-7-7-7-7-7-7-7--5--5--5--|
A|-5-5-5-5-5-5-5-5--3-3-3-3-3-3-3-3--5-5-5-5-5-5-5-5--3--3--3--|
D|-------------------------------------------------------------|

Breakdown Oh Snap! x4		    Guitar 2 Strums 
e|--------------------------------------|------|-------------------|
B|--------------------------------------|------|-------------------|
G|--------------------------------------|-7-7--|-------------------|
D|-0-0-0-0-0-0--0-0---0-0-0-0-0-0--3-3--|-x-x--|-0~----------------|
A|-0-0-0-0-0-0--0-0---0-0-0-0-0-0--3-3--|-5-5--|-0~--(Pickslide)---|
D|-0-0-0-0-0-0--0-0---0-0-0-0-0-0--3-3--|------|-0~----------------|

Chorus x2
e|-----------------------------------------------------------------------------------|
B|-----------------------------------------------------------------------------------|
G|----------7-7-7-7--------------------------------7-7-7-7---------------------------|
D|-0-0-0-0--7-7-7-7--8-8-8-8--10-10-7-7---0-0-0-0--7-7-7-7--10-10-12-12--9-9-9/10/9--|
A|-0-0-0-0--5-5-5-5--8-8-8-8--10-10-7-7---0-0-0-0--5-5-5-5---8--8-10-10--7-7-7/-8/7--|
D|-0-0-0-0-----------8-8-8-8--10-10-7-7---0-0-0-0------------------------------------|

Oh Snap Another Breakdown! x6
e|------------------------------------------------------------|
B|------------------------------------------------------------|
G|------------------------------------------------------------|
D|-0-0-0--3p0----0-0-0--6-6-5-5----0-0-0--3p0----0-0-0-0-0-0--|
A|-0-0-0--3p0----0-0-0--6-6-5-5----0-0-0--3p0----0-0-0-0-0-0--|
D|-0-0-0--3p0----0-0-0--6-6-5-5----0-0-0--3p0----0-0-0-0-0-0--|
   .             .                 .             . . . . . .


Important: The song above is NOT stored on the Chordie server. The original song is hosted at www.guitaretab.com. Chordie works as a search engine and provides on-the-fly formatting. Chordie does not index songs against artists/composers will. To remove this song please click here.

This song is displayed as text-only. Transposing and tuning is only available for chordpro-songs.

Login - add to songbook

Rating click stars to rate

Layout
Accuracy

SHARE PAGE  




You need to log in to post comments