Prayer For A Friend

Casting Crowns

 F#7sus4
||-2------||---------2-------||
||-2------||-----------2-----||
||-4------||-------4----4----||
||-2------||-----2--------2--||
||-4------||---4-------------||
||-2------||-----------------||


Verse 1:
 EG#m
 Lord, I lift my friend to You, I've done all that I know to do
 A2E
lift my friend to You
 EA2
 Complicated circumstances have clouded his view
 F#mA2E
 Lord, I lift my friend up to You

Chorus:
 A2EB2G#m
fear that I won't have the words that he needs to hear
 A2EB2G#mC#m
pray for Your wisdom, oh God, and a heart that's sincere
F#m A2 A2x2
Lord, I lift my friend up to You

Verse 2:
 EG#m
 Lord, I lift my friend to You, My best friend in the world I know
 A2A2
He means much more to You 
 EA2
want so much to help him, but this is something he has to do
 F#mA2E
And Lord, I lift my friend up to You

Chorus 2:
 A2EB2G#m
Cause there's a way that seems so right to him But You know where that
Leads
 A2EB2G#mC#m
 He's becoming a puppet of the world, too blind to see the strings
 F#mA2A2
 Lord, I lift my friend up to You 
 G#mA2
My friend up to You

B2, G#m, C#m, A2,

Outro:
 EG#m
 Lord, I lift my friend to You, I've done all that I know to do
 A2E
lift my friend to You

Chords Used:
 F#7sus4EG#mB2F#mC#mA2
||-2------||-0-||--4--||--2--||-2-||-4-||--0--||
||-2------||-0-||--4--||--2--||-2-||-5-||--0--||
||-4------||-1-||--4--||--4--||-2-||-6-||--2--||
||-2------||-2-||--6--||--4--||-4-||-6-||--2--||
||-4------||-2-||--6--||--2--||-4-||-4-||--0--||
||-2------||-0-||--4--||--2--||-2-||-4-||--0--||


Please send questions or comments to napolean_the@yahoo.com
(this is my first tab)


A2 B2 C#m E F#7sus4 F#m G#m
variations - click chord images
Transpose chords:
Tuning:
Cool service:
View: Size:
A  A  A
Rating:
Layout:
  • Currently 3/5 Stars.
  • 1
  • 2
  • 3
  • 4
  • 5
 
Accuracy:
  • Currently 4.5/5 Stars.
  • 1
  • 2
  • 3
  • 4
  • 5
 
click stars to rate
Chordie recommends:
Learn to play guitar with video-based, online guitar lessons at JamPlay.com
Songbook:
Login to add this song to your songbook
Support the artist
Preview/buy this song
MSN Music
Why this non-profit ad?

 
login to add comments/video/corrections