Alright

Casting Pearls

-------------------------------------------------------------------------------

-------------------------------------------------------------------------------

 D
d#|-3------3----7-----7-------5-----3-----2------------------------|
A#|-3------3----7-----8-------5-----3-----3------------------------|
F#|-0--- --0----8-----7-------6-----0-----2------------------------|
C#|-0------2----9-----9-------7-----2-----0------------------------|
G#|-2------2----9-----7-------7-----3-----x------------------------|
D#|-3------x----7-----7-------5-----x-----x------------------------|


NB. The chord change in the verse is a lot quicker
in the chorus so just listen to the song get the idea.

INTRO:

Cadd9 Em7 G D (Repeat)

VERSE 1
 Cadd9Em7GD
  Make the Great escape    (Ahhhhhh ahhhh)
 Cadd9Em7GD
  And find a way to make ends meet
 Cadd9Em7GD
  Enemies      (Ahhhhhh ahhhh)
 Cadd9Em7GD
  Well I don't think they ever sleep

BRIDGE:

 BEm7(2
   Make our way until we see the light
 BEm7(2A
   Another day, another chance and it will be  

CHORUS:
 G
    Allll...riiiiiiiiiiiiiight
 DEm7
    Allll...riiiiiiiiiiiiiight
 DG
    Allll...riiiiiiiiiiiiiight
 DEm7
    Allll...riiiiiiiiiiiiiight

FILL:

Cadd9 Em7 G D (x2)

VERSE 2:

 Cadd9Em7GD
  So what you say     (Ahhhhhh ahhhh)
 Cadd9Em7GD
  And what you do is who you are
 Cadd9Em7GD
  You say its truth   (Ahhhhhh ahhhh)
 Cadd9Em7GD
  But still you lied right from the start

BRIDGE:

 BEm7(2
   Make a change and find the reasons why
 BEm7(2A
   Another day, another chance and it will be  

CHORUS:
 G
  Allll...riiiiiiiiiiiiiight
 DEm7
  Allll...riiiiiiiiiiiiiight
 DG
  Allll...riiiiiiiiiiiiiight
 DEm7
  Allll...riiiiiiiiiiiiiight

INTERLUDE: (This how I play it, not 100% sure if this is correct)

 Cadd9D
  And I wonder
 Em7D
   When we fall
 Cadd9D
   Who do we need?
 Em7D
   Who do we call?

CHORUS:
 G
  Allll...riiiiiiiiiiiiiight
 DEm7
  Allll...riiiiiiiiiiiiiight
 DG
  Allll...riiiiiiiiiiiiiight
 DEm7
  Allll...riiiiiiiiiiiiiight
 DG
  Allll...riiiiiiiiiiiiiight
 DEm7
  Allll...riiiiiiiiiiiiiight
 DG
  Allll...riiiiiiiiiiiiiight
 DEm7
  Allll...riiiiiiiiiiiiiight

OUTRO:

Cadd9 Em7 G D (Repeat)(Strumming changes here also)


A B Cadd9 D Em7 G
variations - click chord images
Transpose chords:
Tuning:
Cool service:
View: Size:
A  A  A
Rating:
Layout:
  • Currently 2.8/5 Stars.
  • 1
  • 2
  • 3
  • 4
  • 5
 
Accuracy:
  • Currently 2.8/5 Stars.
  • 1
  • 2
  • 3
  • 4
  • 5
 
click stars to rate
Chordie recommends:
Learn to play songs at Jamplay.com with video guitar lessons
Songbook:
Login to add this song to your songbook
Support the artist
Preview/buy this song
MSN Music
Why this non-profit ad?

 
login to add comments/video/corrections