Chordie logo


Punk Rock Tragedy   Casualties



"Punk Rock Tragedy" The Casualties

Intro
e|-11-11-11---------------------11-11-11-------------------|
B|-12-12-12-15-12-15-12-11-11---12-12-12-15-12-15-12-11-11-|
G|---------------------------------------------------------|
D|---------------------------------------------------------|
A|---------------------------------------------------------|
E|---------------------------------------------------------|

e|---------------------------------------------------------|
B|-11-11-11--------------------11-11-11--------------------|
G|-12-12-12-14-12-14-12-11-11--12-12-12-14-12-14-12-11-11--|
D|---------------------------------------------------------|
A|---------------------------------------------------------|
E|---------------------------------------------------------|

Verse after intro
e|--------------------------------------------------------------------|
B|--------------------------------------------------------------------|
G|-555555--77-99-77777--888888-10-10-11-11-11-5555555-----------------|
D|-555555--77-99-77777--888888-10-10-11-11-11-5555555-----------------|
A|-333333--55-77-55555--666666-8--8--9--9--9--7777777-----------------|
E|--------------------------------------------------------------------|

Pre chorus
e|-----------------------------|
B|-----------------------------|
G|-----------------------------|
D|--11-11-11-11-7777-9999------|
A|--11-11-11-11-7777-9999------|
E|--9--9--9--9--5555-7777------|

e|------------------------------|
B|------------------------------|
G|------------------------------|
D|--11-11-11-11-7777-9-7-9-7-99-|
A|--11-11-11-11-7777-9-7-9-7-99-|
E|--9--9--9--9--5555-7-5-7-5-77-|

"Punk Rock Tragedy!"
e|-----------------------------|
B|-----------------------------|
G|-----------------------------|
D|-77777--99-------------------|
A|-77777--99-------------------|
E|-55555--77-------------------|

"Whoa-oh-oh"
e|---------------------------------------|
B|---------------------------------------|
G|-------999--7777777--------------------|
D|-7777--999--7777777--------------------|
A|-7777--777--5555555--------------------|
E|-5555-------^play this the second time-|



Important: The song above is NOT stored on the Chordie server. The original song is hosted at www.guitaretab.com. Chordie works as a search engine and provides on-the-fly formatting. Chordie does not index songs against artists/composers will. To remove this song please click here.

This song is displayed as text-only. Transposing and tuning is only available for chordpro-songs.

Login - add to songbook

Rating click stars to rate

Layout
Accuracy

SHARE PAGE  




You need to log in to post comments