Chordie logo


Unemployed   Casualties



----------------------------------------------------------------------------
			     UNEMPLOYED - The Casualties
----------------------------------------------------------------------------
Tabbed by: DumbKids
Album: For The Punx
Tuning: Standard

Guitar 1: Lead
Guitar 2: Rythmn

Intro:

Guitar 2
e|-------------------------------------------------------------------------|
B|-------------------------------------------------------------------------|
G|-9-9-999-9-9999--5-5-55----------9-9-999-9-9999--7-7-77------------------|
D|-9-9-999-9-9999--5-5-55--7-7-77--9-9-999-9-9999--7-7-77--9-9-99----------|
A|-7-7-777-7-7777--3-3-33--7-7-77--7-7-777-7-7777--5-5-55--9-9-99----------|
E|-------------------------5-5-55--------------------------7-7-77----------|
						   *Guitar 1 does pickslide
						    down fretboard.
Verse:

Gutars 1 & 2
e|---------------------------------------|
B|---------------------------------------|
G|-99999999-5555------99999999-7777------|
D|-99999999-5555-7777-99999999-7777-9999-|
A|-77777777-3333-7777-77777777-5555-9999-|
E|---------------5555---------------7777-|

Chorus:

Guitars 1 & 2

e|---------------------------------------------------|
B|---------------------------------------------------|
G|-9----12----------------9----12--------------------|
D|-9-99-12-1212-7777-9999-9-99-12-1212-9999-12121212-|
A|-7-99-10-1212-7777-9999-7-99-10-1212-9999-12121212-|
E|---77----1010-5555-7777---77----1010-7777-10101010-|

Interlude:

Guitars 1 & 2
e|---------------------------------------|
B|---------------------------------------|
G|------9999-77777777------9999----------|X2
D|-9999-9999-77777777-9999-9999-77777777-|
A|-9999-7777-55555555-9999-7777-77777777-|
E|-7777---------------7777------55555555-|

Pre-Solo:

Guitar 1
e|----------------------------------------------------------------|
B|----------------------------------------------------------------|
G|-9------------------------------9-------------------------------|
D|-9-(hold)-----------------------9-(hold)------------------------|
A|-7------------------------------7-------------------------------|
E|----------------------------------------------------------------|

Guitar 2
e|----------------------------------------------------------------|
B|----------------------------------------------------------------|
G|-9-9-999-9-9999--5-5-55----------9-9-999-9-9999--7-7-77---------|
D|-9-9-999-9-9999--5-5-55--7-7-77--9-9-999-9-9999--7-7-77--9-9-99-|
A|-7-7-777-7-7777--3-3-33--7-7-77--7-7-777-7-7777--5-5-55--9-9-99-|
E|-------------------------5-5-55--------------------------7-7-77-|

Solo:

Guitar 1
e|--------------------------------------------------------------|
B|-----------------8-8-888-10-8-10-8-10-----------------8-------|
G|-9-9-999-9-9-999----------------------9-9-999-9-9-999---9-777-|x2
D|--------------------------------------------------------------|
A|--------------------------------------------------------------|
E|--------------------------------------------------------------|
  *Guitar 2 plays the verse twice under this.

Ending:

e|----------|
B|----------|
G|-9--------|
D|-9-(hold)-|
A|-7--------|
E|----------|

Order:

Intro x1
Verse x3
Chorus x2
Verse x2
Chorus x2
Interlude x1
Pre-Solo x1
Solo x1
Verse x2
Chorus x2
Ending


Important: The song above is NOT stored on the Chordie server. The original song is hosted at www.guitaretab.com. Chordie works as a search engine and provides on-the-fly formatting. Chordie does not index songs against artists/composers will. To remove this song please click here.

This song is displayed as text-only. Transposing and tuning is only available for chordpro-songs.

Login - add to songbook

Rating click stars to rate

Layout
Accuracy

SHARE PAGE  




You need to log in to post comments