Chordie logo

Whos Gonna Be   Casualties



 this IS 100% correct


~=let ring
/=slide down fretboard



INTRO


E-----------------------|
B-----------------------|
G-----------------------|
D-7777-99-77------------|
A-7777-99-77------------|
E-5555-77-55------------|

E---------------------------------|
B---------------------------------|
G------7777-----------------------|
D-9999-7777-5555-77-55-7777-99-77-|             X4
A-9999-5555-5555-77-55-7777-99-77-|
E-7777------3333-55-33-5555-77-55-|

E--------------------------|
B--------------------------|
G------7777----------------|
D-9999-7777-5555-77-55-7~--|             (pick slide)
A-9999-5555-5555-77-55-7~--|
E-7777------3333-55-33-5~--|

E---------------------------|
B---------------------------|
G------7777-9999-55---------|
D-7777-7777-9999-55-55------|
A-7777-5555-7777-33-55------|
E-5555--------------33------|

VERSE

E---------------------------|
B---------------------------|
G------7777-9999-555--------|     X4
D-7777-7777-9999-555-5------|
A-7777-5555-7777-333-5------|
E-5555---------------3------|

CHORUS

E-----------------------------------------|
B-----------------------------------------|
G-9999----------------9999-----------7777-|
D-9999-7777-9999-7777-9999-7777-9999-7777-|      X2
A-7777-7777-9999-7777-7777-7777-9999-5555-|
E------5555-7777-5555------5555-7777------|

BRIDGE

E---------------------------------------------------|
B---------------------------------------------10-10-|
G-------------------------------77777777-9999-------|
D-777-6-777-9-101010-9-10101010-77777777-9999-------|
A-777-6-777-9-101010-9-10101010-55555555-7777-------|
E-555-4-555-7--8-8-8-7--8-8-8-8---------------------|


E-----------------------------|
B----13-10-13-10-13-10/-------|
G-----------------------------|
D-----------------------------|

A-----------------------------|
E-----------------------------|


there it is. well, enjoy!


Important: The song above is NOT stored on the Chordie server. The original song is hosted at www.guitaretab.com. Chordie works as a search engine and provides on-the-fly formatting. Chordie does not index songs against artists/composers will. To remove this song please click here.

This song is displayed as text-only. Transposing and tuning is only available for chordpro-songs.

Login - add to songbook

Rating click stars to rate

Layout
Accuracy

SHARE PAGE  

You need to log in to post comments