Chordie logo

Social Outcast   Casualties



Tabbed by: drosales
Email:iowafree2sk8@yahoo.com

Tuning:standard
intro
e|-----------------------------------------------------------------------------------------------------|
B|-----------------------------------------77777----------------79777---7777-1212121212---77-1010--12--|
G|-9------------10-9-9-------9-------------------------------789---------------------------------------|
D|-9--7-7--9----10-9-9--9----9--7-7--9-----------99999----789------------------------------------------|
A|-7--7-7--9----8--7-7--9----7--7-7--9-----------------789---------------------------------------------|
E|----5-5--7------------7-------5-5--7-----------------------------------------------------------------|
verse
e|------------------------------------|
B|------------------------------------|
G|-------77-9----99999-101010-7-------|
D|-99999-77-9-9--99999-101010-7---x2--|
A|-99999-55-7-9--77777-8-8-8--5-------|
E|-77777------7-----------------------|
chorus
e|------------------------------------|
B|------------------------------------|
G|-9-7-9-7--------------7---7---------|
D|-9-7-9-7-99999------7-7-7-7-99------|
A|-7-5-7-5-99999-x2---7-5-7-5-99--x4--|
E|---------77777------5---5---77------|
guitar solo 2 thing
e|------------------------------------------------------------------------------------|
B|-77777------------------------------------------------------------------------------|
G|--------------987-------------------------------------------------------------------|
D|-------99999------987---------------------------------------------------------------|
A|----------------------987-----------------------------------------------------------|
E|--------------------------1098------------------------------------------------------|
verse
chorus
third solo thing
e|----------------------------------------------------------|
B|----------------------7-----------------------------7-10--|
G|------------------------9-7-9-7777-x2-----------789-------|
D|-9------------------------------------------789-----------|
A|-9--------------------------------------789---------------|
E|-7hold----pickslide---------------------------------------|
verse
chorus till the end
end
e|----------------------------------------------------------------------------------|
B|----------------------------------------------------------------------------------|
G|-------77-9-----------------------------------------------------------------------|
D|-9-----77-9-9---------------------------------------------------------------------|
A|-9-----55-7-9---------------------------------------------------------------------|
E|-7hold------7---------------------------------------------------------------------|


Important: The song above is NOT stored on the Chordie server. The original song is hosted at www.guitaretab.com. Chordie works as a search engine and provides on-the-fly formatting. Chordie does not index songs against artists/composers will. To remove this song please click here.

This song is displayed as text-only. Transposing and tuning is only available for chordpro-songs.

Login - add to songbook

Rating click stars to rate

Layout
Accuracy

SHARE PAGE  

You need to log in to post comments