Guitar Tabs, Chords and Lyrics


Moonshadow  Cat Stevens

 Moonshadow - Cat Stevens-------------------------------------------------------------------------------



e|-----5-------------------3--2---3-----2----------------------0-2---------|

B|---3--------------------3--3---3--------3-------0----------------3-------|
G|-2---------------------2--2---2----------------0----2-----2--------------|
D|----------------------------------------------0----2-----0---------------|
A|---------------------------------------------x----0----------------------|
E|--------------------------------------------3----x-----------------------|
And i[G]f I ever[A] lose my hands, lose my plough, lose my land,
O[D]h i[Bm]f I ev[Em]er lose my[A7] hands, o[D]h if.......... I wont have to work no more.
And[G] if I ev[A]er lose my eyes, if my colours all run dry,
Y[D]es [Bm]if I e[Em]ver lose m[A7]y eyes, o[D]h if.......... I wont have to cry no more.
And if [G]I ever l[A]ose my legs, I wont moan, and I wont beg,
Y[D]es [Bm]if I e[Em]ver lose m[A7]y legs, o[D]h if.......... I wont have to walk no more.
And i[G]f I ever[A] lose my mouth, all my teeth, north and south,
Y[D]es [Bm]if I e[Em]ver lose m[A7]y mouth, [D]oh if......... I wont have to talk...
D[E]id it take l[A]ong to fi[E]nd m[A]e?   [E]I asked the[A] faithful l[E]ight. [A]
Did it take[E] long [G]to find me?   and are you gonna stay the night?
(you might need to mess around with rythm in this last part im not sure when you need to
the chords but its pretty easy so you should get it.)

This is my first tab so sorry if I made any mistakes, feel free to leave a comment to
me, but i think this is basically the song.

Chords
[D]                                     
e ---|-x-|---|---|---|
B ---|---|-x-|---|---|
G ---|-x-|---|---|---|
D ---|---|---|---|---|
A ---|---|---|---|---|
E ---|---|---|---|---|


[G]                                     
e ---|---|-x-|---|---|
B ---|---|---|---|---|
G ---|---|---|---|---|
D ---|---|---|---|---|
A ---|-x-|---|---|---|
E ---|---|-x-|---|---|


[A]                                     
e ---|---|---|---|---|
B ---|-x-|---|---|---|
G ---|-x-|---|---|---|
D ---|-x-|---|---|---|
A ---|---|---|---|---|
E ---|---|---|---|---|


[A7]                                     
e ---|---|---|---|---|
B ---|-x-|---|---|---|
G ---|---|---|---|---|
D ---|-x-|---|---|---|
A ---|---|---|---|---|
E ---|---|---|---|---|


[Em]                                     
e ---|---|---|---|---|
B ---|---|---|---|---|
G ---|---|---|---|---|
D ---|-x-|---|---|---|
A ---|-x-|---|---|---|
E ---|---|---|---|---|


[Bm]                                     
e ---|-x-|---|---|---|
B ---|---|-x-|---|---|
G ---|---|---|-x-|---|
D ---|---|---|-x-|---|
A ---|-x-|---|---|---|
E ---|-o-|---|---|---|


| / slide up
| \ slide down
| h hammer-on
| p pull-off
| ~ vibrato
| + harmonic
| x Mute note
===============================================================================

Important: The song above is NOT stored on the Chordie server. The original song is hosted at www.guitaretab.com. Chordie works as a search engine and provides on-the-fly formatting. Chordie does not index songs against artists'/composers' will. To remove this song please click here.

Text color:
Chord color:
Chord grids: 
Font size:    
Page size: 

A A7 Bm D E Em G
variations - click chord images

Login - add to songbook

Transpose chords

Tuning

Rating click stars to rate

Layout
Accuracy

SHARE PAGE  




You need to log in to post comments