Guitar Tabs, Chords and Lyrics


Wild World  Cat Stevens

[Am]Now that i've [D7]lost every thing to [G]you
[G]You say you [C]wanna start something [F]new
[F]And it's [Dm]breaking my heart you're [E]leaeving
[E]Baby I'm grievin'
[Am]But if you want to [D7]leave take good c[G]are
[G]Hope you have a [C]lot of nice things t[F]o wear
[F]But then a [Dm]lot of nice things turn bad out there[E]http://www.ultimate-guitar.com/tab/42213685   [G
]

Chorus:

[C]Oh [G]baby baby it's a wil[F]d world

E ------------------------------------|

B -2p0--------------------------------|
G -----3p0----------------------------|
D ---------3p2p0----------------------|
A ---------------3--------------------|
E ------------------------------------|
[G]It's hard to get [F]by just upon a[C] smile
[C]Oh [G]baby baby it's a wil[F]d world
[G]I'll always remem[F]ber you like a[C] child, girl[D]   [E]

[Am]You know i've seen [D7]a lot of what the world can [G]do
[G]And it's break[C]ing my heart in[F] two
[F]Because I [Dm]never want ot see you [E]sad girl
[E]Don't be a bad girl
[Am]But if you want to [D7]leave take good c[G]are
[G]Hope you make a [C]lot of nice friends out t[F]here
[F]But just re[Dm]member theres a lot of bad and beware[E]   [G]

Chorus:

[C]Oh [G]baby baby it's a wil[F]d world
[G]It's hard to get [F]by just upon a[C] smile
[C]Oh [G]baby baby it's a wil[F]d world
[Am]I'll[D7] alw[G]ays[C] rem[F]emb[Dm7]er you like a child, girl
[Am]    [D7]    [G]   [Cmaj7]       [F]   [Dm7]              
E ------------------------------------------------------------------------|

B -2-2-2-2-2-2-2-2-2p0--0-0-0-0-0-0-2-0-------------------0-------------0-|
G -------------------------------------4p2--2-2-2-2-2-2-2---1---1-1-1-2---|
D ------------------------------------------------------------2-----------|
A ------------------------------------------------------------------------|
E ------------------------------------------------------------------------|
E -----------------------------------------------------------------------|
B -2-2-2-2-2-2-2-2-2p0--0-0-0-0-0-0-2-0-------------------0--------------|
G -------------------------------------4p2--2-2-2-2-2-2-2---1------------|
D ------------------------------------------------------------2----------|
A -----------------------------------------------------------------------|
E -----------------------------------------------------------------------|

[C]Oh [G]baby baby it's a wil[F]d world
[G]It's hard to get [F]by just upon a[C] smile
[C]Oh [G]baby baby it's a wil[F]d world
[G]I'll always remem[F]ber you like a[C] child, girl[D]   [E]

Few Personal Tips:

*"Play" with the bases, and do it with ease - that's how it done right.
*Recomended with Acoustic guitar.
*Put some emotion on the lyrics!
*Enjoy the melody. That's the most valuable thing about chords.

nimrod_hertz@walla.com

Important: The song above is NOT stored on the Chordie server. The original song is hosted at www.guitaretab.com. Chordie works as a search engine and provides on-the-fly formatting. Chordie does not index songs against artists'/composers' will. To remove this song please click here.

Text color:
Chord color:
Chord grids: 
Font size:    
Page size: 

Am C Cmaj7 D D7 Dm Dm7 E F G
variations - click chord images

Login - add to songbook

Transpose chords

Tuning

Rating click stars to rate

Layout
Accuracy

SHARE PAGE  




You need to log in to post comments