Guitar Tabs, Chords and Lyrics


Rubylove   Cat Stevens


E  --7----5----0----4-- * --0----0----0----0-- * 








B  --0----0----0----0-- * --0----0----0----0-- * 








G# --7----5----0----3-- * --0----7----0----1-- * 



E  --0----0----0----0-- * --0----0----0----0-- * 



B  --0----0----0----0-- * --0----7----0----2-- * 



E  --0----0----0----0-- * --0----0----0----0-- * 



E  --0----0----0----0----0----0--* --7----5----4----2----0--*



B  --0----0----0----0----0----0--* --0----0----0----0----0--*



G# --1----0----1----3----1----0--* --7----5----3----1----0--*



E  --0----0----0----0----0----0--* --0----0----0----0----0--*



B  --2----0----2----4----2----0--* --0----0----0----0----0--*



E  --0----0----0----0----0----0--* --0----0----0----0----0--*



Important: The song above is NOT stored on the Chordie server. The original song is hosted at www.guitaretab.com. Chordie works as a search engine and provides on-the-fly formatting. Chordie does not index songs against artists'/composers' will. To remove this song please click here.

This song is displayed as text-only. Transposing and tuning is only available for chordpro-songs.

Login - add to songbook

Rating click stars to rate

Layout
Accuracy

SHARE PAGE  




You need to log in to post comments