Guitar Tabs, Chords and Lyrics


I Am The Mob  Catatonia



  [D]    [D/C#]      [D]       [D/C#]                                                                   
E---------------------
B---------------------
G---------------------
D---7---7---7>9<7---7-
A-5---4---5-------4---
E---------------------

  [G]    [D/C#]         [D]                                                                       
E---3-2-0-----------
B-3-------3-2-3-----
G---------------2---
D-----------------0-
A-------------------
E-------------------

I put ho[D]rse's he[D/C#]ads in peop[D]le's bed[D/C#]s,
Cos [G]I [A]am the mo[D]b,
When d[D]uty cal[D/C#]ls gonna bus[D]t some bal[D/C#]ls
Cos [G]I [A]am the m[D]ob,
[Em]Try tell me it's not one for the money,
Two for the money, three for the money
Am I your Easter bunny come o[Bm]n,
[Em]I try my level best , my best to please
but I'm gonna put a bullet between your knees baby come [Bm]on
Oh just h[A]ello

Stop blo[D]wing 'the [D/C#]jon' put his 'kic[D]ks back' o[D/C#]n
cos [G]I [A]am the m[D]ob
stop m[D]ucking arou[D/C#]nd, with a bra[D]nd new sou[D/C#]nd
cos[G] I [A]am the [D]mob

[Em]try tell me it's a one for the money,
two for the money, three for the money
Am i your easter bunny come [Bm]on
oh baby come on

[Em]i try my level best, my best to please but

i'm gonna put a bullet between your knees
come [Bm]on, just please he[A]llo

And I l[D]ook and I [A]see that he sle[G]eps with the 'fish[Em]es'
And I l[D]ook and I s[A]ee that he sl[G]eeps with the 'fishe[Em]s'
And I l[D]ook and I [A]see that he sl[G]eeps with the 'fis[Em]hes'
[G]Mrs   [Em]   [Eb]     [D]

SOLO!(Flanger with distortion)
  [Em]                                                                                    
E---------------------------------------------
B---------------------------------------------
G-12-12-12-12-12-12-12-12-11-11-11-11-9-9-9-9-
D---------------------------------------------
A---------------------------------------------
E---------------------------------------------
E---------------------------------------------
B---------------------------------------------
G-12-12-12-12-12-12-12-12-11-11-11-11-9-9-9-9-
D---------------------------------------------
A---------------------------------------------
E---------------------------------------------

  [Bm]                                                                                   
E---------------------------------
B---------------------------------
G-7-7-7-7-7-7-7-7-6-6-6-6-4-4-4-4-
D---------------------------------
A---------------------------------
E---------------------------------
E---------------------------------
B---------------------------------
G-7-7-7-7-7-7-7-7-6-6-6-6-4-4-4-4-
D---------------------------------
A---------------------------------
E---------------------------------

  [Em]                                                                                   
E---------------------------------------------
B---------------------------------------------
G-12-12-12-12-12-12-12-12-11-11-11-11-9-9-9-9-
D---------------------------------------------
A---------------------------------------------
E---------------------------------------------
E---------------------------------------------
B---------------------------------------------
G-12-12-12-12-12-12-12-12-11-11-11-11-9-9-9-9-
D---------------------------------------------
A---------------------------------------------
E---------------------------------------------

  [Bm]                                [A]                                                   
E-----------------------------------
B-----------------------------------
G-7-7-7-7-7-7-7-7-6-6-6-6-4-4-4-4-2-
D-----------------------------------
A-----------------------------------
E-----------------------------------


Oh tell him y[A7]es tell him
And I l[D]ook and I [A]see that he sle[G]eps with the 'fish[Em]es'
And I l[D]ook and I s[A]ee that he sl[G]eeps with the 'fishe[Em]s'
And I l[D]ook and I [A]see that he sl[G]eeps with the 'fis[Em]hes'
[G]Mrs   [Em]   [Eb]
And I l[D]ook and I [A]see that he sle[G]eps with the 'fish[Em]es'
And I l[D]ook and I s[A]ee that he sl[G]eeps with the 'fishe[Em]s'
And I l[D]ook and I [A]see that he sl[G]eeps with the 'fis[Em]hes'
[G]I [A]am the m[D]ob

Feedback...


Lead guitar during chorus(fishes):
E--10-9-7--------------
B---------9-7-9-7------
G-7---------------11-9-
D----------------------
A----------------------
E----------------------

Lead during verse is similar to intro.

Important: The song above is NOT stored on the Chordie server. The original song is hosted at www.guitaretab.com. Chordie works as a search engine and provides on-the-fly formatting. Chordie does not index songs against artists'/composers' will. To remove this song please click here.

Text color:
Chord color:
Chord grids: 
Font size:    
Page size: 

A A7 Bm D D/C# Eb Em G
variations - click chord images

Login - add to songbook

Transpose chords

Tuning

Rating click stars to rate

Layout
Accuracy

SHARE PAGE  




You need to log in to post comments

marsamgod (report)

Pedant time:

It's actually

"Stop blowing the Don put his Kecks back on"
and

"Luca Brasi? Ah, he sleeps with the fishes"