Imaginary Friend

Catatonia

----------------


 DmAmDmAm
e---5-------5------
B---6---5---6---5--
G-------5-------5--
D------------------
A-5-------5--------
E-----5-------5----


Verse 1

 DmAmDmAmFmCmFmCmDmAmDmAmFmCmFmCm
e---5-------5-------8-------8-------5-------5-------8-------8------
B---6---5---6---5---9---8---9---8---6---5---6---5---9---8---9---8--
G-------5-------5-------8-------8-------5-------5-------8-------8--
D------------------------------------------------------------------
A-5-------5-------8-------8-------5-------5-------8-------8--------
E-----5-------5-------8-------8-------5-------5-------8-------8----


 Eb5F5D5Bb5C5
e------------------
B------------------
G------------------
D-8--10--7---------
A-6--8---5--8--10--
E-----------6--8---


Lyrics

Both born of lust and deceit
We are lovers who will never meet
Once fate put us in the same room
When you knew not of me nor I of you
Something inside dies

Verse 2

 DmAmDmAmFmCmFmCmDmAmDmAmFmCmFmCm
e---5-------5-------8-------8-------5-------5-------8-------8------
B---6---5---6---5---9---8---9---8---6---5---6---5---9---8---9---8--
G-------5-------5-------8-------8-------5-------5-------8-------8--
D------------------------------------------------------------------
A-5-------5-------8-------8-------5-------5-------8-------8--------
E-----5-------5-------8-------8-------5-------5-------8-------8----


 Eb5F5D5Bb5C5
e------------------
B------------------
G------------------
D-8--10--7---------
A-6--8---5--8--10--
E-----------6--8---


Lyrics

And we don't stand up to scrutiny
But we spin by and by the by
A great pain finds numb haven, humdrum
And we spin by and by the by
Something inside dies

Pre-Chorus

 DmAmDmAmFmCmFmCm
e---5-------5-------8-------8------
B---6---5---6---5---9---8---9---8--
G-------5-------5-------8-------8--
D----------------------------------
A-5-------5-------8-------8--------
E-----5-------5-------8-------8----


 Eb5F5D5Bb5C5Eb5F5D5Bb5C5
e------------------ e------------------
B------------------ B------------------
G------------------ G------------------
D-8--10--7--------- D-8--10--7---------
A-6--8---5--8--10-- A-6--8---5--8--10--
E-----------6--8--- E-----------6--8---


Lyrics

Something inside dies
Something inside dies

Chorus Chords

 Gm355333
 Bb     6  8  8  7  6  6
Cm 8 10 10 8 8 8
Eb X 6 8 8 8 X

Chorus

 Gm
 Me and my imaginary friend
 BbCm
 Have been going round the bend for some time now
 Eb
For some time now

 Gm
 And me and Timmy Turd
 Bb
 Are having trouble being heard
 Cm
Through the background hum
 Eb
Above the background hum

 GmBb
 And me and Barry C are going down to Connah's Quay,
 Cm
For all your Telecaster dreams
 Eb
Telecaster is all you need

 Gm
 Me and my imaginary friend
 BbCm
 Have been going round the bend for some time now
 Eb
For some time now

 Gm
 And me and Timmy Turd
 Bb
Are having trouble being heard
 Cm
Through the background hum
 Eb
Above the background hum

 GmBb
 And me and Barry C are going down to Connah's Quay,
 Cm
For all your Telecaster dreams
 Eb
Telecaster is all you need

 Eb5F5D5Bb5C5
e------------------
B------------------
G------------------
D-8--10--7---------
A-6--8---5--8--10--
E-----------6--8---


Something inside dies


Am Bb Bb5 C5 Cm D5 Dm Eb Eb5 F5 Fm Gm
variations - click chord images
Transpose chords:
Tuning:
Cool service:
View: Size:
A  A  A
Rating:
Layout:
  • Currently 2.5/5 Stars.
  • 1
  • 2
  • 3
  • 4
  • 5
 
Accuracy:
  • Currently 3.4/5 Stars.
  • 1
  • 2
  • 3
  • 4
  • 5
 
click stars to rate
Chordie recommends:
Learn to play guitar with video-based, online guitar lessons at JamPlay.com
Songbook:
Login to add this song to your songbook
Support the artist
Preview/buy this song
MSN Music
Why this non-profit ad?

 
login to add comments/video/corrections