Guitar Tabs, Chords and Lyrics


Afraid This Time   Celldweller



Artist : Celldweller
Song   : Afraid This Time
Album  : Celldweller (self-titled)
Tuning : Drop C

Intro (clean acoustic) 
D|--------------------------------------------------------------0-|
A|--------------------------------------------------------------0-|
F|----7---------9\-----2-----0--2-----7---------9\-----2-----0--4-|
C|-5-----/7---------0-----2--------5-----/7---------0-----2-----5-|
G|-----------0-------------------------------0------------------7-|
C|----------------------------------------------------------------|

Verse 
D|-------------------------------------------------------------------|
A|-------------------------------------------------------------------|
F|-------------------------------------------------------------------|
C|-5----5--5--5-----2----2--2--2-----5--5-----7--7-----2----2--2--2--|
G|-5----5--5--5-----2----2--2--2-----5--5-----7--7-----2----2--2--2--|
C|-5----5--5--5-----2----2--2--2-----5--5-----7--7-----2----2--2--2--|

Pre-chorus 
D|----------------------------|
A|----------------------------|
F|----------------------------| 
C|-3----0----7--x--5--x--3----|
G|-3----0----7--x--5--x--3----|
C|-3----0----7--x--5--x--3----|


Chorus (dist.)
D|-------------------------------------------------------------------|
A|-------------------------------------------------------------------|
F|-------------------------------------------------------------------|
C|-5--5-5-5-5---7--7-7-7-7---0--0-0-0-0---2--2-2-2-2---10-10-10-10---|
G|-5--5-5-5-5---7--7-7-7-7---0--0-0-0-0---2--2-2-2-2---10-10-10-10---|
C|-5--5-5-5-5---7--7-7-7-7---0--0-0-0-0---2--2-2-2-2---10-10-10-10---|


Ending (dist.)
D|-------------------------------------------------|
A|-------------------------------------------------|
F|---------------------------------7-7-7-----------|
C|-2-0-2---2-0-2---2-0-2---2-0-2---7-7-7---0-3-0---|
G|-2-0-2---2-0-2---2-0-2---2-0-2---5-5-5---0-3-0---|


Important: The song above is NOT stored on the Chordie server. The original song is hosted at www.guitaretab.com. Chordie works as a search engine and provides on-the-fly formatting. Chordie does not index songs against artists'/composers' will. To remove this song please click here.

This song is displayed as text-only. Transposing and tuning is only available for chordpro-songs.

Login - add to songbook

Rating click stars to rate

Layout
Accuracy

SHARE PAGE  




You need to log in to post comments