Guitar Tabs, Chords and Lyrics


Morbid Tales   Celtic Frost



Band: Celtic Frost
Album: Morbid Tales
Song: Morbid Tales

Copyright (c) Noise Records 1984

PM- palm mute 
/ - slide up to
\ - slide down to 
~ - vibrato
h - hammer on b - Bend
p - pull off Suffixes for bend
t - tap f - full bend h - half bend
ph - pinched harmonic q - quarter bend t - tap bend
* - see comment ^ - Hold bend r release bend
x - Stuccatto ~ - vibrato bend
, - slight palm mute () - ghost note, sustained note
" - tremolo note  - Trill

Tuning E A D G B E

Intro:
|--------------------------------------------------------------|
|--------------------------------------------------------------|
|--------------------------------------------------------------|
|--------------------------------------------------------------|
|-4/5-2--3--------4/5-2--4--------4/5-2--3--------4/5-2--4-----|
|-2/3-0--1--------2/3-0--2--------2/3-0--1--------2/3-0--2-----|

Riff 1:
|---------------------------------------------------|
|---------------------------------------------------|
|---------------------------------------------------| X2
|----6----5----6----3---2-----6----5----6----2----3-|
|----4----3----4----1---0-----4----3----4----0----1-|
|-00---00---00---00---00---00---00---00---00---00---|
P|--| |--| |--| |--| |--| |--| |--| |--| |--| |--|

Riff 2:
|--------------------------|
|--------------------------|
|--------------------------| X4
|--------------------------|
|-2222222222222222-4-5-6---|
|-0000000000000000-2-3-4---|
PM|---------------|

Riff 3:
 |-Tremolo-Picked--------|
|--------------------------|
|--------------------------|
|--------------------------| X4
|222222222233444444444444--|
|000000000033222222222222--|
|--------------------------|

Chorus:
|----------------------------------------------------------------------|
|----------------------------------------------------------------------|
|----------------------------------------------------------------------| X2
|-666666666666666666666666777777776666666666666666--6--5--4------------|
|-444444444444444444444444555555554444444444444444--4--3--2------------|
|----------------------------------------------------------------------|


Riff 2 X4

Riff 3 X4

Chorus X2

Riff 1 X2


Riff 4.1:
|---------------------------------|
|---------------------------------|
|---------------------------------| X2
|----7----8----7----7-6-5---------|
|----5----6----5----5-4-3---------|
|-00---00---00---00---------------|
P|--| |--| |--| |--|
Riff 4.2:
|---------------------------------|
|---------------------------------|
|---------------------------------| X2
|----7----8----7----8-9-10--------|
|----5----6----5----6-7-8---------|
|-00---00---00---00---------------|
 |--| |--| |--| |--|

sorry no solo yet

Solo Rythm - Chorus X2

Riff 2 X4

Riff 3 X4

Chorus X2

Riff 2 X4


Important: The song above is NOT stored on the Chordie server. The original song is hosted at www.guitaretab.com. Chordie works as a search engine and provides on-the-fly formatting. Chordie does not index songs against artists'/composers' will. To remove this song please click here.

This song is displayed as text-only. Transposing and tuning is only available for chordpro-songs.

Login - add to songbook

Rating click stars to rate

Layout
Accuracy

SHARE PAGE  




You need to log in to post comments