LET US PRAY

Steven Curtis Chapman

e-------------------------------------------------

a-------------------------------------------------

d---------3-------3-3-3---------3------3-3-3------

g-----------------0-1-0-----------------0-1-3-----  x4

b---1-11---11-1---------1-11----11-1--------------

E-------------------------------------------------


 BbFGm
hear you say your heart is achin' 
 EbCm
You've got trouble in the making 
 GmCmF
And you ask if I'd be praying for you please 
 BbFGm
And in keeping with convictions 
 EbCm
I say here's for good intentions 
 GmCmF
To pray lately making mention of your needs 
 CmEbFGm
 Since we have this moment here at heaven's door 
 EbCmFBb
                          We should start knocking now so what are we waiting for
CHORUS:
 EbBb
Let us pray, let us pray 
 FGm
Everywhere and every way 
 EbBb
Every moment of the day 
 F
It is the right time
 EbBb
For the father above 
 FGm
He is listening with love 
 EbF
And he wants to answer us 
 Bb
So let us pray 
e-------------------------------------------------
a-------------------------------------------------
d---------3----- -3-3-3---------3------3-3-3------
g-----------------0-1-0-----------------0-1-3----- x2
b---1-11---11-1---------1-11----11-1--------------
E-------------------------------------------------

VERSE 2:
 BbFGm
 So if you feel the spirit movin'
 EbCm
Prompting, prodding and behooving 
 GmCmF
There is no time to be losing let us pray 
 BbFGm
 Let the Father hear us saying 
 EbCm
What we need to be conveying 
 GmCmF
 Even while this song is playing let us pray 
 CmEbFGm
And just because we say the words amen  
 EbCmFBb
It doesn't mean this conversation needs to end 
CHORUS:
 EbBb
Let us pray, let us pray 
 FGm
Everywhere and every way 
 EbBb
Every moment of the day 
 F
It is the right time
 EbBb
Let us pray without end 
 FGm
And when we finish start again 
 EbF
Like breathing out and breathing in, 
 Ab
let us pray
BRIDGE:
 AbCmGm
 Let us approach the throne of grace with confidence 
 AbCm
As our prayers draw us near to the one who knows our need
 EbF
Before we even call his name 
(CHORUS)
Intro till end


Ab Bb Cm Eb F Gm
variations - click chord images
Transpose chords:
Tuning:
Cool service:
View: Size:
A  A  A
Rating:
Layout:
  • Currently 2.9/5 Stars.
  • 1
  • 2
  • 3
  • 4
  • 5
 
Accuracy:
  • Currently 2.3/5 Stars.
  • 1
  • 2
  • 3
  • 4
  • 5
 
click stars to rate
Chordie recommends:
Check out JamPlay.com for online video guitar lessons
Songbook:
Login to add this song to your songbook
Support the artist
Preview/buy this song
MSN Music
Why this non-profit ad?

 
login to add comments/video/corrections