Chordie logo


Open Arms   Tracy Chapman



This is completely perfect. It is an octave down.

Main Riff - Piano Transcribed for Acoustic Guitar
(relative to capo 2nd fret)
E)-----------0----------|
B)-----3-------1--------|
G)-0--------------0-----|
D)---2-----2------------|
A)-3-----3-------3------|
E)----------------------|
Lying beside you...

E)----------------------|
B)-----3------0-1-------|
G)-0------------------2-|
D)---0-----0--------3---|
A)-2-----2------0-3-----|
E)----------------------|
Here in the dark...

E)----------------------|
B)-1--0-----1-0---------|
G)------2---------0-----|
D)---2----2-----0---2---|
A)-0--------------------|
E)------------3---------|
Feeling your heartbeat...

E)-----------1-3/1------|
B)---------1-------1----|
G)-2-----2-----------2--|
D)-----3----------------|
A)---3------------------|
E)-1--------------------|
With mine...

Solo - Electric Guitar
(No Capo)
E)--------14------------|
B)---17-----15----------|
G)-14---------14--------|
D)----------------------|
A)----------------------|
E)----------------------|

E)----------------------|
B)---17-14-14/15--------|
G)-14-------------------|
D)----------------------|
A)----------------------|
E)----------------------|

E)----------------------|
B)-14/15-14-15-14-------|
G)----------------14----|
D)----------------------|
A)----------------------|
E)----------------------|

E)----------------------|
B)----------------------|
G)----14-14/16----------|
D)-16-------------------|
A)----------------------|


Important: The song above is NOT stored on the Chordie server. The original song is hosted at www.guitaretab.com. Chordie works as a search engine and provides on-the-fly formatting. Chordie does not index songs against artists/composers will. To remove this song please click here.

This song is displayed as text-only. Transposing and tuning is only available for chordpro-songs.

Login - add to songbook

Rating click stars to rate

Layout
Accuracy

SHARE PAGE  




You need to log in to post comments