Chordie logo


Fathers Song   Charles Mack



-------------------------------------------------------------------------------
			     Father’s Songs – August rush
-------------------------------------------------------------------------------
Tabbed by: Craig Stevens
Email:casn92@missouri.edu

Tuning: Standard

e|---------------------------------------------------------------------------------|
B|----8--------------8---------------8---------------8-----------------------------|
G|----x----------------------------------------------------------------------------|
D|----8--------------8---------------8--------------8------------------------------|
A|----6-------6--------------6---------------6-------------------------------------|
E|---------------------------------------------------------------------------------|

e|---------------------------------------------------------------------------------|
B|------8-------------8------------------8-----------------------------------------|
G|------x--------------------------------------------------------------------------|
D|----- 6------6--------------6----------------------------------------------------|
A|------4------4--------------4----------------------------------------------------|
E|---------------------------------------------------------------------------------|

e|---------------------------------------------------------------------------------|
B|---------------------------------------------------------------------------------|
G|-----8----------8--------8----------8--------------------------------------------|
D|-----8----------8--------8----------8--------------------------------------------|
A|-----x---------------------------------------------------------------------------|
E|----- 8------8--------8---------8------------------------------------------------|

e|--------------------------------------------------------------------------------|
B|--------------------------------------------------------------------------------|
G|------8----------------10-------------------------------------------------------|
D|------8----------------8--------------------------------------------------------|
A|------x----------------x--------------------------------------------------------|


Important: The song above is NOT stored on the Chordie server. The original song is hosted at www.guitaretab.com. Chordie works as a search engine and provides on-the-fly formatting. Chordie does not index songs against artists/composers will. To remove this song please click here.

This song is displayed as text-only. Transposing and tuning is only available for chordpro-songs.

Login - add to songbook

Rating click stars to rate

Layout
Accuracy

SHARE PAGE  




You need to log in to post comments