Chordie logo


Take Me Away   Chase Coy



Artist: Chase Coy
Title:  Take Me Away


   Take me away, to January...
E----------------------------------------------|
B------3-----------3-----------3-----------3---|
G--2-----2-----2-----2-----2-----2-----2-----2-|
D----0-----------0-----------0-----------0-----|
A--------------2-----0-----------------2-----0-|
E--2-----3-----------------2-----3-------------|


   I just need some time alone
E----------------------------|
B------3-----------3---------|
G--2-----2-----2-----2-----2-|
D----0-----------2-----0h2---|
A--------------0-------------|
E--2-----3-------------------|


   Before I'm ready to come back home
E--------------------0-------|
B------3-----------3---3-----|
G--2-----2-----2---------2---|
D----0-----------2---------2-|
A--------------0-------------|
E--2-----3-------------------|


   There's gotta be something...
E----------------------------------------------|
B------3-----------3-----------3-----------3---|
G--2-----2-----2-----2-----2-----2-----2-----2-|
D----0-----------0-----------0-----------0-----|
A--------------2-----0-----------------2-----0-|
E--2-----3-----------------2-----3-------------|


   There's more than this midwestern town
E------------------------------|
B------3-------------3---------|
G--2-----2-----2---2---2-----2-|
D----0-----------2-------0-----|
A--------------0-----------0---|
E--2-----3---------------------|


   I can't let this place keep me down
E--------------------0----------|
B------3-----------3---3--------|
G--2-----2-----2---------2------|
D----0-----------2---------2----|
A--------------0--------------0-|
E--2-----3----------------------|


   So I tell myself...
E------------|
B------------|
G--0---2---4-|
D----0---0---|
A------------|
E--0---2---3-|


 CHORUS

   There's a girl out on the coast...
E----------------------------------|
B--3-----3-----3-----2-----3-----3-|
G--2-----2-----2-----2-----2-----2-|
D--0-----0-----0-----0-----0-----0-|
A--x-----0-----2-----0-----x-----0-|
E--3-----------------------3-------|


   Tonight
E----------------0--------0-------|
B------3-------3---3---------3----|
G--2-----2-2-------0------------2-|
D----0-------2-----0--------------|
A--2-------0-------x--------------|
E------------------3--------------|


   Take me away, I need the...
E----------------------------------------------|
B------3-----------3-----------3-----------3---|
G--2-----2-----2-----2-----2-----2-----2-----2-|
D----0-----------0-----------0-----------0-----|
A--------------2-----0-----------------2-----0-|
E--2-----3-----------------2-----3-------------|


   I just need to get out of here
E----------------------------|
B------3-----------3---------|
G--2-----2-----2-----2-----2-|
D----0-----------2-----0h2---|
A--------------0-------------|
E--2-----3-------------------|


   And visit the coast just to see her
E--------------------0-------|
B------3-----------3---3-----|
G--2-----2-----2---------2---|
D----0-----------2---------2-|
A--------------0-------------|
E--2-----3-------------------|


   There's gotta be something...
E----------------------------------------------|
B------3-----------3-----------3-----------3---|
G--2-----2-----2-----2-----2-----2-----2-----2-|
D----0-----------0-----------0-----------0-----|
A--------------2-----0-----------------2-----0-|
E--2-----3-----------------2-----3-------------|


   There's more than this midwestern town
E------------------------------|
B------3-------------3---------|
G--2-----2-----2---2---2-----2-|
D----0-----------2-------0-----|
A--------------0-----------0---|
E--2-----3---------------------|


   I can't let this place keep me down
E--------------------0----------|
B------3-----------3---3--------|
G--2-----2-----2---------2------|
D----0-----------2---------2----|
A--------------0--------------0-|
E--2-----3----------------------|


   So I tell myself...
E------------|
B------------|
G--0---2---4-|
D----0---0---|
A------------|
E--0---2---3-|


 CHORUS

   There's a girl out on the coast...
E----------------------------------|
B--3-----3-----3-----2-----3-----3-|
G--2-----2-----2-----2-----2-----2-|
D--0-----0-----0-----0-----0-----0-|
A--x-----0-----2-----0-----x-----0-|
E--3-----------------------3-------|


   Tonight
E-------------------|
B--3-----3-----3333-|
G--2-----2-----2222-|
D--0-----2-----2222-|
A--2-----0-----0000-|
E-------------------|


   There's a girl out on the coast...
E--------------------------------------------------------|
B--33333333-33333333-33333333-22222222-33333333-33333333-|
G--22222222-22222222-22222222-22222222-22222222-22222222-|
D--00000000-00000000-00000000-00000000-00000000-00000000-|
A--xxxxxxxx-00000000-22222222-00000000-xxxxxxxx-00000000-|
E--33333333----------------------------33333333----------|


   Tonight
E--------------------|
B------3-------3---3-|
G--2-----2-2-----2-0-|
D----0-------2-----0-|
A--2-------0-------x-|
E------------------3-|


   Take me away, to January...
E----------------------------------------------|
B------3-----------3-----------3-----------3---|
G--2-----2-----2-----2-----2-----2-----2-----2-|
D----0-----------0-----------0-----------0-----|
A--------------2-----0-----------------2-----0-|
E--2-----3-----------------2-----3-------------|


   I just need some time alone
E----------------------------|
B------3-----------3---------|
G--2-----2-----2-----2-----2-|
D----0-----------2-----0h2---|
A--------------0-------------|
E--2-----3-------------------|


   Before I'm ready to come back home
E----------------|
B------3-------3-|
G--2-----2-----2-|
D----0---------2-|
A--------------0-|
E--2-----3-------|





Important: The song above is NOT stored on the Chordie server. The original song is hosted at www.guitaretab.com. Chordie works as a search engine and provides on-the-fly formatting. Chordie does not index songs against artists/composers will. To remove this song please click here.

This song is displayed as text-only. Transposing and tuning is only available for chordpro-songs.

Login - add to songbook

Rating click stars to rate

Layout
Accuracy

SHARE PAGE  




You need to log in to post comments