eToCache5 = ""; ?> Xanaphobe by Cheer Up Charlie - guitar chords, guitar tabs and lyrics - chordie

Xanaphobe

Cheer Up Charlie

 GBbF
e-|-3-3-3-6-3-1---6--6--6-8--6-3--1--1--1-3--1-1-3--1--1--3--1-1-|
B-|-3-3-3-3-3-1---6--6--6-6--6-3--1--1--1-1--1-1-3--1--1--1--1-1-|
G-|--------------------------------------------------------------|
D-|--------------------------------------------------------------|
A-|--------------------------------------------------------------|
E-|--------------------------------------------------------------|


Guitar II RP80=62
 GBbF
e-|-----------------------8------10-10-10-8------10-10-10-8------|
B-|-8-8-8-11-8---11-11-11---11-8------------11-8------------11-8-|
G-|-----------10-------------------------------------------------|
D-|--------------------------------------------------------------|
A-|--------------------------------------------------------------|
E-|--------------------------------------------------------------|


Guitar I
 GBbF
e-|-3-3-3-6-3-1---6--6--6-8--6-3--1--1--1-3--1-1-3--1--1--3--1-1-|
B-|-3-3-3-3-3-1---6--6--6-6--6-3--1--1--1-1--1-1-3--1--1--1--1-1-|
G-|--------------------------------------------------------------|
D-|--------------------------------------------------------------|
A-|--------------------------------------------------------------|
E-|--------------------------------------------------------------|


Guitar II
 GBbF
e-|-----------------------8--------------------------------------|
B-|-8-8-8-11-8---11-11-11---11-8----------8-------8-------8------|
G-|-----------10-----------------10-10-10---10-10---10-10---10-7-|
D-|--------------------------------------------------------------|
A-|--------------------------------------------------------------|
E-|--------------------------------------------------------------|


 GEbBbF
G-|----------------------------------------------------------------|
D-|--------------------8-------8-----------------------10------10--|
A-|---5-------5----5\6---6---6---6-----8-------8-----8---8---8---8-|
E-|-3---3---3---3--------------------6---6---6---6-----------------|


It's invisible, but it's so real
The temptings of they who kill and steal

RP80=63,64
 GEbBbF
     Watching......,                      Waiting.........,
There everywhere There everywhere They'll pull you under.
Crawling......, Biting..........,
There everywhere There everywhere They'll pull you under...Now!!!

I know, you know, we know that there is something going on now
He said, she said, we believe that there is something going on now
Listen to me all you kids is this the way you think it is?
I know, you know, we all feel alone
I won't give another day, give another way… I am gonna change,
I am gonna change ... I am gonna change

When ever I see, ever I see your face…
Then I believe, then I believe in grace

Unseen dimensions, fear's not from love
The wars of hell for many souls above

 GEbBbF
     Watching......,                      Waiting.........,
There everywhere There everywhere They'll pull you under.
Crawling......, Biting..........,
There everywhere There everywhere They'll pull you under...Now!!!

Guitar I
 FGBbEbFFG
e-|-1\3--6--11~~--11\13---13-15-x-x-1\3--6--11~~--11\13---13-15-x-x-|
B-|-----------------------------x-x-----------------------------x-x-|
G-|-----------------------------x-x-----------------------------x-x-|
D-|-----------------------------------------------------------------|
A-|-----------------------------------------------------------------|
E-|-----------------------------------------------------------------|


Guitar II
 FGBbEbBbAFG
e-|-----------------------------------------------------------------|
B-|---------------10\11-10------x-x---------------10\11-10------x-x-|
G-|---------8~~-----------10\12-x-x---------8~~-----------10\12-x-x-|
D-|------8--------------------------------8-------------------------|
A-|-8\10-----------------------------8\10---------------------------|
E-|-----------------------------------------------------------------|


 GEbBbF
     Watching......,                      Waiting.........,
There everywhere There everywhere They'll pull you under.
Crawling......, Biting..........,
There everywhere There everywhere They'll pull you under...Now!!!

A Bb Eb F G
variations - click chord images
Transpose chords:
Tuning:
Cool service:
View: Size:
A  A  A
Rating:
Layout:
  • Currently 2.3/5 Stars.
  • 1
  • 2
  • 3
  • 4
  • 5
 
Accuracy:
  • Currently 2.6/5 Stars.
  • 1
  • 2
  • 3
  • 4
  • 5
 
click stars to rate
Chordie recommends:
Learn to play this song & others via video guitar lessons at JamPlay.com
Songbook:
Login to add this song to your songbook
Support the artist
Preview/buy this song
MSN Music
Why this non-profit ad?

 
login to add comments/video/corrections