Chordie logo

Blackhole Scenery   Chemical Vocation



Title: Blackhole Scenery
Artist: Chemical Vocation

Intro:

e|--0-0-0-0-0-0-0-0-0-0-0-0-0-0--|
B|--6-6-6-6-6-6-6-6-6-6-6-6-6-6--|
G|--9-9-9-9-9-9-9-9-9-9-9-9-9-9--|
D|-------------------------------|
A|-------------------------------|
E|-------------------------------|

Verse:

Lights out it falls...

e|---------------------------------------------------------------|
B|---------------------------------------------------------------|
G|--6-6-6-6-6-6-6-6---8-8-8-8-8-8--9-9-9-9-9--11-11-11-11-11-11--|
D|--x-x-x-x-x-x-x-x---x-x-x-x-x-x--x-x-x-x-x--x--x--x--x--x--x---| Repeat
A|--4-4-4-4-4-4-4-4---6-6-6-6-6-6--7-7-7-7-7--9--9--9--9--9--9---|
E|---------------------------------------------------------------|

then right before chorus:

"motherfucker!"

e|-----------------|
B|-----------------|
G|-----------------|
D|--4-4-4-4-4-4-4--|
A|--4-4-4-4-4-4-4--|
E|--2-2-2-2-2-2-2--|


Chorus:

Like an angel left to die...

e|------------------------------------------------------------------------------------------|
B|------------------------------------------------------------------------------------------|
G|--4-4-4-4-4-4-4-4-4--6-6-6-6-6-6-6-6--------------------------4-4-4-4-4-4-----------------|
D|--4-4-4-4-4-4-4-4-4--6-6-6-6-6-6-6-6--7-7-7-7-7--2-2-2-2-2-2--4-4-4-4-4-4--4-4-4-4-4-4-4--|
A|--2-2-2-2-2-2-2-2-2--4-4-4-4-4-4-4-4--7-7-7-7-7--2-2-2-2-2-2--2-2-2-2-2-2--4-4-4-4-4-4-4--|
E|--------------------------------------5-5-5-5-5--0-0-0-0-0-0---------------2-2-2-2-2-2-2--|

Sorry, but I can't tab the second verse, but i guess
it's a C# chord:)

Riff right before second chorus:

e|--------------------------------------------------------------|
B|----------------------------------------12--------------------|
G|--6-6-6---x-x---8-8-8--x-x--9-9-9--x-x--x---11--13----14--13--|
D|--x-x-x---x-x---x-x-x--x-x--x-x-x--x-x--9---x---x-----x---x---|
A|--4-4-4---x-x---6-6-6--x-x--7-7-7--x-x------9---11----12--11--|
E|--------------------------------------------------------------|

then chorus again

Like an angel left to die...

e|------------------------------------------------------------------------------------------|
B|------------------------------------------------------------------------------------------|
G|--4-4-4-4-4-4-4-4-4--6-6-6-6-6-6-6-6--------------------------4-4-4-4-4-4-----------------|
D|--4-4-4-4-4-4-4-4-4--6-6-6-6-6-6-6-6--7-7-7-7-7--2-2-2-2-2-2--4-4-4-4-4-4--4-4-4-4-4-4-4--|
A|--2-2-2-2-2-2-2-2-2--4-4-4-4-4-4-4-4--7-7-7-7-7--2-2-2-2-2-2--2-2-2-2-2-2--4-4-4-4-4-4-4--|
E|--------------------------------------5-5-5-5-5--0-0-0-0-0-0---------------2-2-2-2-2-2-2--|



and I'm sorry, I can't tab the outro either;(

but this is a part of the song, I'm pretty new with tabbing, so if you think this tab 
too good, please don't write "this tab sux", write why and what I can do better :) and if 


Important: The song above is NOT stored on the Chordie server. The original song is hosted at www.guitaretab.com. Chordie works as a search engine and provides on-the-fly formatting. Chordie does not index songs against artists/composers will. To remove this song please click here.

This song is displayed as text-only. Transposing and tuning is only available for chordpro-songs.

Login - add to songbook

Rating click stars to rate

Layout
Accuracy

SHARE PAGE  

You need to log in to post comments