Chordie logo


Mia   Chevelle



"Mia" - Chevelle
Tabbed by Chris Thieblot from the "Live At The NorVa" DVD
chrissundin15@hotmail.com

Drop D 

Intro/Verses

E|--------------------------------------------------------------------|
B|--------------------------------------------------------------------|
G|-11-11-11-11/9-9-9--------------------------------------------------|
D|-11-11-11-11/9-9-9--9-9-9-9/7-7-7---5-5-5--7-7-7--9-9-9--5-5-5-5----|
A|-9--9--9--9/-7-7-7--9-9-9-9/7-7-7---5-5-5--7-7-7--9-9-9--5-5-5-5----|
D|--------------------7-7-7-7-5-5-5---3-3-3--5-5-5--7-7-7--3-3-3-3----|
 

Chorus

E|-----------------------------------------------------|
B|-----------------------------------------------------|
G|--------3----------3---------------------------------|
D|--2--2-------2--2---------5-5-5-5-5-5-5-5/7-7-7-7-7--|
A|--2--2-------2--2---------5-5-5-5-5-5-5-5/7-7-7-7-7--|
D|--2--2-------2--2---------3-3-3-3-3-3-3-3/5-5-5-5-5--|
    

Interlude  (This is all I could make from the DVD. His hands are around this area 
            but I couldn't find which strings.)

E|--10-10-10-10-10-10-10-10-10-|-------------------------|
B|--10-10-10-10-10-10-10-10-10-|-------------------------|
G|--9--9--9--9--9--9--9--9--9--|--5/7-7--6--7----7--9----|
D|--0--0--0--0--0--0--0--0--0--|--x-x-x--x--x----x--9----|
A|--0--0--0--0--0--0--0--0--0--|--3/5-5--4--5----5--7----|
D|--0--0--0--0--0--0--0--0--0--|-------------------------|


Important: The song above is NOT stored on the Chordie server. The original song is hosted at www.guitaretab.com. Chordie works as a search engine and provides on-the-fly formatting. Chordie does not index songs against artists/composers will. To remove this song please click here.

This song is displayed as text-only. Transposing and tuning is only available for chordpro-songs.

Login - add to songbook

Rating click stars to rate

Layout
Accuracy

Jango Player

SHARE PAGE  




You need to log in to post comments