Chordie logo

Saferwaters   Chevelle



This tabs strumming pattern might not be right so you might have to listen to the song 
find the pattern.But the tablature is 100% oh yeah!Chevelle kicks major poon tang!

Drop B

INTRO
C#------------------------|
G#------------------------|
E----------999--------999-|
B---333-XX-XXX-333-XX-XXX-|
F#--333-XX-777-333-XX-777-|
B---333-XX-----333-XX-----|

-----------------|
-----------------|
-----999-----999-|
-000-XXX-000-XXX-|
-000-777-000-777-|
-000-----000-----|

-------------------------|
-------------------------|
----------999--------999-|
---333-XX-XXX-333-XX-XXX-|
---333-XX-777-333-XX-777-|
---333-XX-----333-XX-----|

---------------------------|
---------------------------|
-----999/10101010/12121212-|
-000-XXX/X-X-X-X-/X-X-X-X--|
-000-777/8-8-8-8-/10101010-|
-000-----------------------|
2x
-------------------------------------------------------------------|
---------5---------------5---------------5-------------------------|
-------5---5-----------5---5-----------5---5---------------9-------|
-----3-------3-------3-------3-------0-------0-------7---7---7-----|
---3-----------3---3-----------3---0-----------0---7---7-------7---|
-3---------------3---------------0---------------7---------------7-|

PRECHORUS 2x
-------------------------------------------|
-------------------------------------------|
--------999---------999------999-------999-|
-333-XX-XXX--333-XX-XXX--000-XXX--000--XXX-|
-333-XX-777--333-XX-777--000-777--000--777-|
-333-XX------333-XX------000------000------|

CHORUS
-------------------------------------------|
-------------------------------------------|
-------------------------------222222222---|
-333333333/777777777-000000000-222222222---|
-333333333/777777777-000000000-111111111---|
-333333333/777777777-000000000-------------|

SOLO 2x
-------------------------------------------|
-17-17-17-17/15-15-15-15-15-15/12-12-12-12-|
-------------------------------------------|
-------------------------------------------|
-------------------------------------------|
-------------------------------------------|

-------------------------------------------------12---12---12---12-----------|
-17-17-17-17/15-15-15-15-15-15/12-12-12-12/9/12/9--9-9--9-9--9-9--9-9/777777-|
-----------------------------------------------------------------------------|

-----------------------------------------------------------------------------|
-----------------------------------------------------------------------------|


Important: The song above is NOT stored on the Chordie server. The original song is hosted at www.guitaretab.com. Chordie works as a search engine and provides on-the-fly formatting. Chordie does not index songs against artists/composers will. To remove this song please click here.

This song is displayed as text-only. Transposing and tuning is only available for chordpro-songs.

Login - add to songbook

Rating click stars to rate

Layout
Accuracy

SHARE PAGE  

You need to log in to post comments