""; ?> Will You Still Love Me by Chicago - guitar chords, guitar tabs and lyrics - chordie

Will You Still Love Me

Chicago

e ||-------------9---8-----||      |-----|

B ||----------9---------9--|| |-----|
G ||*-8---10--------------*|| (5x) |-10--|
D ||*---------------------*|| |-----|
A ||-----------------------|| |-----|
E ||-----------------------|| |-----|

 G#5F5F#5G#5C#5
e ||--------------8-----8-9--|--2nd--|-------------||
B ||-----11--9-11----11------|--time-|-------------||
G ||*-8----------------------|--only-|------------*||
D ||*------------------------|-------|----------6-*||
A ||-------------------------|--6-3--|-4--4--6--4--||
E ||-------------------------|--4-1--|-2--2--4-----||


 G#C#
   Take me as I am
 CmC#D#
Put your hand in mine now and forever 
 G#C#
   Darling here I stand,
 CmC#
Stand before you now. Deep inside I always knew
 BbmD#m
   It was you, you and me
 BbmBbsus2C#
Two hearts drawn together bound by destiny
 BbmD#m
   It was you, and you for me
 BbmBbsus2C#G#
Every road leads to your door, every step I take for evermore

 C#F#G#C#
   Just say you love me for the rest of your life
 F#G#
gotta lot of love, and I don't wanna let go
 C#F#G#C#
   Will you still love me for the rest of my life?
 F#G#
'Cause I can't go on   
 C#F#
No, I can't go on   

I can't go on
 G#C#
If I'm on my own

 G#5F5F#5D#5G#5
e |--------------8-9-11-9-|------------------|
B |-9---11--9-11----------|------------------|
G |-----------------------|------------------|
D |-----------------------|-------------8----|
A |-----------------------|-6--3--4--4--6--6-|
E |-----------------------|-4--1--2--2-----4-|

 G#C#
  Take me as I am
 CmC#D#
Put your heart in mine, stay with me forever 
 G#C#Cm
   'Cause I am just a man who never understood
 C#
I never had a thing to prove
 BbmD#m
   'Till there was you, you and me
 Bbm
Then it all came clear so suddenly
 Bbsus2C#
How close to you that I wanna be

(Chorus)

 CmFm
   Do you believe a love could run so strong?
 CmFm
   Do you believe a love could pass you by?
There was no special one for me
I was the lonely one, you see
 D#
But then my heart lost all control
           C#         D#   E |-6-8-9-6-9-6-|

Now you're all that I know

(Chorus)

 F#G#
I can't go on (Can't go on)
 C#F#F#G#C#
No, I can't go on               

 F#G#
'Cause I can't go on (Will you still love me?)
 C#F#
No, I can't go on (Just say you love me)

I can't go on
 G#C#
Without somebody I can call my own
 F#G#
'Cause I can't go on (Will you still love me?)
 C#F#
No, I can't go on (Just say you love me)
 G#C#
Just stay around       
 F#G#
'Cause I can't go on (Will you still love me?)
 C#F#
No, I can't go on (Just say you love me)
 G#C#
I can't go on, if you could say your love   
 F#G#
'Cause I can't go on (Will you still love me?)
 C#F#
No, I can't go on (Just say you love me)
 G#C#
Stay around, you'll never be alone

(Intro 1st line 8x repeat)


Bbm Bbsus2 C# C#5 Cm D# D#5 D#m F# F#5 F5 Fm G# G#5
variations - click chord images
Transpose chords:
Tuning:
Cool service:
View: Size:
A  A  A
Rating:
Layout:
  • Currently 2.9/5 Stars.
  • 1
  • 2
  • 3
  • 4
  • 5
 
Accuracy:
  • Currently 3.7/5 Stars.
  • 1
  • 2
  • 3
  • 4
  • 5
 
click stars to rate
Chordie recommends:
Get acoustic guitar lessons and electric guitar lessons at JamPlay.com
Songbook:
Login to add this song to your songbook
Support the artist
Preview/buy this song
MSN Music
Why this non-profit ad?

 
login to add comments/video/corrections