""; ?> If You Leave Me Now by Chicago - guitar chords, guitar tabs and lyrics - chordie

If You Leave Me Now

Chicago

e|------------------------------------5--5--3--5--3--5--5------------|

B|--5--5--3--5--3--5--3--5--5-----5--5--3--5--3--5--5-----------------|
D|--5--5--3--5--3--5--3--5--5-----------------------------------------|
G|--------------------------------------------------------------------|
A|--------------------------------------------------------------------|
E|--------------------------------------------------------------------|

 CCmaj7AmEmEm7 Em
 If you leave me now, you'll take away the biggest part of me  
 AmDGCCmaj9 C
Ooo, ooo, ooo, ooo, no, baby please don't go 
 Cmaj7AmEm
And if you leave me now, you'll take away the very heart of me
 AmDGC
Ooo, ooo, ooo, ooo, no, baby please don't go
 AmDGCCmaj9 C
Ooo, ooo, ooo, ooo, girl, I just want you to stay 

bridge
 F5add9BbmF
   A love like ours is love that's hard to find
 AmFGCBm E
   How could we let it slip away?    
 F5add9BbmF
   We've come to far to leave it all behind
 AmFGC
   How could we end it all this way?
 EmAmDmEmFm6
When tomorrow comes and we'll both regret things we said today
Solo:
e |----------------------------------------------------|

B|-----------------------------------------------------|
D|-7-3-5-5---5-3-5-3-5---3-5-7--3----------------------|
G|-7-3-5-5---5-3-5-3-5---3-5-7--3----------------------|
A|-----------------------------------------------------|
E |----------------------------------------------------|
e |------------------------------------------------------------------------|
B|-------------------------------------------------------------------------|
D|------------------------------------------------------------7-5-3-5-7-5--|
G|-------------------------------------------------------------------------|
A|----7-5-3-5-7-5--5-3-1-3-5--------7-5-3-5-7-5----------------------------|
E |--------------------------------3---------------------------------------|
repeat bridge
 CCmaj7AmEmEm7 Em
 If you leave me now, you'll take away the biggest part of me 
 AmDGC
Ooo, ooo, ooo, ooo, no, baby please don't go
 AmDGC
 Ooo girl, just got to have you by my side
 AmDGC
Ooo, ooo, ooo, ooo, no, baby please don't go
 AmDGC
 Ooo mama, I just got to have your lovin, yeah..
play Cmaj9 without3; original version -1 semitone


Corrected by double-joe. View original
Am Bbm C Cmaj7 D Dm Em F Fm6 G
variations - click chord images
Transpose chords:
Tuning:
Cool service:
View: Size:
A  A  A
Rating:
Layout:
  • Currently 2.7/5 Stars.
  • 1
  • 2
  • 3
  • 4
  • 5
 
Accuracy:
  • Currently 2.7/5 Stars.
  • 1
  • 2
  • 3
  • 4
  • 5
 
click stars to rate
Chordie recommends:
Learn how to play guitar at JamPlay.com
Songbook:
Login to add this song to your songbook
Support the artist
Preview/buy this song
MSN Music
Why this non-profit ad?

 
login to add comments/video/corrections