Guitar Tabs, Chords and Lyrics


Sink Or Swim   Chicosci



guitar tabber:kim bondoc
tuning:standard
title:sink or swim
bnbati koh mga clasm8 koh.cla melanio,neo,denver gago ka pati c roy,jomari,angelo at sharmaine

-----------------------------------|
-----------------------------------|
-----------------------------------|
-----5-5-------------5-5-----------|
-3-3-----3-3-----3-3-----3-3-------|
-------------3-3-------------4-4---|4x

gtr part
-------------------------|
-------------------------|
-------------------------|
-------5-----5---5/6/5---|
-3-5h6---6-5---8---------|
-------------------------|7x

acoustic
------------------------------------------------|
-8-8-8-6-6-6-4-4-4-3-3-3----3---1-----3-1---3---|
-8-8-8-7-7-7-5-5-5-3-3-3-0-0--3-0-3-3-0-0-0-3---|
------------------------------------------------|
------------------------------------------------|
------------------------------------------------|

verses:
----15----11---------------15----11-------13-----15----11-----------15-----|
-13----13----15-11-----13----13----15-11-----13----13----15-11-12-13---13--|
--------------------12-----------------------------------------------------|
---------------------------------------------------------------------------|
---------------------------------------------------------------------------|
---------------------------------------------------------------------------|

verse:2nd gtr
|-15-|
|-13-|
|-13-|
|----|
|----|
|----|

---------------|
---------------|
---------------|
-------5-------|

-3-5h6---6-5---|
---------------|


chorus:
-------------|
-4-----------|
-5---3---5---|
-5---5---6---|
-3---5---6---|
-----3---4---|

-----------------|
-----------------|
-----------------|
-3---6---5---1---|
-3---6---5---1---|


Important: The song above is NOT stored on the Chordie server. The original song is hosted at www.guitaretab.com. Chordie works as a search engine and provides on-the-fly formatting. Chordie does not index songs against artists'/composers' will. To remove this song please click here.

This song is displayed as text-only. Transposing and tuning is only available for chordpro-songs.

Login - add to songbook

Rating click stars to rate

Layout
Accuracy

SHARE PAGE  




You need to log in to post comments