Guitar Tabs, Chords and Lyrics


Theme From Conversation With Fire   Chicosci



Song:Theme From Converation with Fire
Album:Icarus
Artist:Chicosci
Date Tabbed:July,2006
Guitar Tabber:Ryan Manongdo,16,m,Montalban Rizal
              forget_013@yahoo.com.ph(Friendster&YM)
              09229015724(Sun Cell) 

chicosci@yahoo.groups.com
www.rakista.com
www.brutalgrace.com

Gtr.Legends:
. - PALM MUTING
x - DEAD STRING
~ - LET IT RING
\ - SLIDE
b - BEND

Gtr.Tuning:Drop D

Intro prt.1:
e|-----------------------------|
B|-----------------------------|
G|-44--66--77--12121212\1111---| 4x
D|-44--66--77--12121212\1111---|
A|-22--44--55--10101010\-9-9---|
D|-----------------------------|
   ..  ..  ..

Intro prt.2:
Gtr.1:
e|-------------------------------------------------------|
B|-------------------------------------------------------|
G|-------555555------------------------------------------| 2x
D|-22222-555555--77-55-44----77-55-44----55555-88-9999---|
A|-22222-333333-----------55----------55-----------------|
D|-22222-------------------------------------------------|

Gtr.2:
e|---------------------------------------------------------------------------------------|
B|---------------------------------------------------------------------------------------|
G|------------------------------------------------------------------12121212-1515\1414---|
D|-22-5-3-5-222-5-3-5-555-5-3-5-555-5-3-5--77-55-44----77-55-44-----xxxxxxxx-xxxx-xxxx---| 2x
A|-22-------222-------333-------333-----------------55----------55--10101010-1313\1212---|
D|-22-------222--------------------------------------------------------------------------|
      
Verse:
Wish I could cut you of fire...
e|----------|
B|----------|
G|-----5~---| 2x
D|-22--5~---|
A|-22--3~---|
D|-22-------|
   .. 

Pre-Chorus:
I'll never find you...       
e|----------------------------|
B|----------------------------|
G|----------------------------|
D|-777777-55-55-55-55-55-55---|
A|-555555-33-22-33-22-33-22---|
D|----------------------------|
   ...... .. .. .. .. .. ..  

It's my fault...
Gtr.1:
e|-------------------------|
B|-------------------------|
G|-------------------------|
D|-777777-55-55-55-55-55---|
A|-555555-33-22-33-22-33---|
D|-------------------------|
   ...... .. .. .. .. ..

Gtr.2:
e|-------------------------------|
B|-------------------------------|
G|--------12-11-12-14-12-11-12---| Pick slide
D|-777777-xx--x-xx-xx-xx--x-xx---|
A|-555555-10--9-10-12-10--9-10---|
D|-------------------------------|
   ......

Chorus:Repeat Intro prt.2
Take me,take me...

Before Verse 2:
e|------------------|
B|------------------|
G|------------------|
D|-15151515151515---|
A|-13131313131313---|
D|------------------|

Verse 2:Repeat Verse
All sweet...

Repeat Pre-Chorus:

Repeat Chorus:

Before Bridge:
e|-----------------------------|
B|-----------------------------|
G|-----------------------------| 2x
D|-15151515151515-1515151515---|
A|-13131313131313-1313131313---|
D|-----------------------------|

Bridge prt.1:
Gtr.1
e|----------|
B|----------|
G|-----5~---|
D|-2~--5~---|
A|-2~--3~---|
D|-2~-------|

Gtr.2:Repeat 3x
e|-10----10b--10-----10b-------    ---------|
B|---10-8--------10-8---10-8--- 3x -10b~~---| Listen to the song
G|-----------------------------    ---------| for timing...
D|-----------------------------    ---------|
A|-----------------------------    ---------|
D|-----------------------------    ---------|

e|--------------------------|
B|--------------------------|
G|-44-66-77-12121212\1111---|
D|-44-66-77-12121212\1111---|
A|-22-44-55-10101010\-9-9---|
D|--------------------------|
   .. .. ..   

Soon I breath new air....
e|----------|
B|----------|
G|-----5~---|
D|-22--5~---|
A|-22--3~---|
D|-22-------|
   ..

Repeat Chorus: 

Repeat Bridge:
This wouldn't turn out right...

Outro:
e|-----------------|
B|-----------------|
G|-44-66-77-1212---|
D|-44-66-77-1212---|
A|-22-44-55-1010---|
D|-----------------|
   .. .. .. 

End...

  I would like to greet first offcourse my ONLY ONLY ONE,then;my relatives,my
friends on Montalban(Brgy.Balite Espiritu Subd.),My traitor friends in our school
NSDAPS San Mateo Rizal,Cocklosas,Cocklisay.Cocktabijan,Cockpistrano,Cockyatano,Cockruz,
Franciscock,Picock,Fuckmittan,Redick,Simbulbulan,Frondosuso,Bayagin,Titesta,Aldick,and many
moore,our band club(COMBO-RATS),Project X,To all my txt mates and other companie,Red Porn Records,
My friends in YM and Friendster,and most of all,hi to God..

Padre Garrote:          Extra:

Dino Testa:Vocals       Andrei Frondoso:Xylophone,Triangles,Flute and Tamborine           
Edy Capistrano:Gtr.1    Mike Alvez:Sub-Guitar                               
Jiro Uezono:Gtr.2      
Ryan Manongdo:Bass       
Aeroll Cayetano:Drums   


Important: The song above is NOT stored on the Chordie server. The original song is hosted at www.guitaretab.com. Chordie works as a search engine and provides on-the-fly formatting. Chordie does not index songs against artists'/composers' will. To remove this song please click here.

This song is displayed as text-only. Transposing and tuning is only available for chordpro-songs.

Login - add to songbook

Rating click stars to rate

Layout
Accuracy

SHARE PAGE  




You need to log in to post comments