Guitar Tabs, Chords and Lyrics


Seven Black Roses   Chicosci



Intro :

E|-----------------------------|
B|-------1---0-1--0-1----1-----|
G|---------0----0------0-------|
D|-----------------------------|
A|---3-------------------------|
E|-----------------------------|

do the intro2 pattern on verses and Bridge

Intro2/ verse/ Bridge

Intro2  
                                      
E|--------------------|-------------------|---------------------|
B|------1---0 1---0-1-|-----1---0-1---0-1-|------1---0-1--0-1---|
G|--------2---- 2-----|-------0-----0-----|--------0----0-------|
D|--------------------|-------------------|---------------------|
A|--0-----------------|-------------------|---------------------|
E|--------------------|--1----------------|---3-----------------|

                             
E|--------------------|--------------------|
B|-----1---0-1---0-1--|---1---0-1---0h1----|
G|-------0-----0------|-----0-----0--------|
D|--------------------|--------------------|
A|--------------------|--------------------|
E|--0-----------------|-1------------------|

2nd guitar

E|----------------------------------------------------|
B|----------------------------------------------------|
G|---222----------------------------------------------|
D|---222------333-----555-------333------333----------|
A|---000------333-----555-------333------333----------|
E|------------111-----333-------000------111----------|



Chorus/Outro

E|--9-------9-------9--------9h10--10h9---9-------9------9-------|
B|----10------10------10--------------------10------10------10---|
G|-------11------11-------11-------------------11------11--------|
D|---------------------------------------------------------------|
A|---------------------------------------------------------------|
E|---------------------------------------------------------------|

Chorus/Outro
 
2nd Guitar

E|------------------------------------------------|
B|------------------------------------------------|
G|---------------------555------------------------|
D|--777-------333------555------------------------|
A|--777-------333------333------------------------|
E|--555-------111---------------------------------|


keep repeating 

bridge;

e|-------------------------------|
B|------1---0-1---0-1------------|
G|--------0-----0----------------|
D|-------------------------------|
A|-------------------------------|
E|---0---------------------------|


By lugaaw@yahoo.com for (meemaws) 

i love this song so much,just a little bit frustration for 
the both of us.       

INFO: Intro2/ verse/ Bridge

            chorus/outro
      
Intro:  C---- 
Intro2:  

Verse 1

When I leave, I wanna wait for the silence
You gave me all you've got
But now I stand here waving to you
and still you smile, you're still looking back
maybe I just wasn't kind enough
I'm fighting urges to fall again,
Yet I stumble
Yet I stumble

Chorus:  
 
These roses died three days since
                           
Black roses died, we said goodbye
                         
These roses died three days since
          
Im sorry, I miss you

Verse 2:

How do I remain complete
When all we bled is lost?
We could've burned the earth and sky
A second chance
The seconds spent
Each other's shadow, should've known
I'm fighting urges to fall again,
Yet I stumble
Yet I stumble

Repeat cHorus:

Outro :

I miss you

I miss you

I missed you oh

 
Bridge:

Hear this I'm yours

(Inside this heart you still remain)

I'm at your feet

(but faded letters are erased)

Repeat chorus 
Repeat OUtro

By lugaaw@yahoo.com for (meemaws)


Important: The song above is NOT stored on the Chordie server. The original song is hosted at www.guitaretab.com. Chordie works as a search engine and provides on-the-fly formatting. Chordie does not index songs against artists'/composers' will. To remove this song please click here.

This song is displayed as text-only. Transposing and tuning is only available for chordpro-songs.

Login - add to songbook

Rating click stars to rate

Layout
Accuracy

SHARE PAGE  




You need to log in to post comments