eToCache5 = ""; ?> Baby Blue by Chocolate Watch Band - guitar chords, guitar tabs and lyrics - chordie
-----------------------------------------------------------

-----------------------------------------------------------

 Asus4Dsus2
e||-------12----12----12-||-------------------------||
b||-----15----15---15----||-----10-----10------10---||
g||*--14----14----------*||*---9------9----9h11----*||
d||*--------------------*||*-12-----12-------------*||
a||----------------------||-------------------------||
E||----------------------||-------------------------||


Intro: Asus4/Asus4/Dsus2/Dsus2 (12-string continues pattern over first
lines of the first verse)

 AD
The highway is for gamblers, better use your sense
 AD
 Take what you have gathered from coinci-dence
 EmGD
Your lover who just walked through your door
 EmGD
Has taken all his blankets from the floor
F#m A N.C.
Look out babe, the sky is fallin' through
 EmGD
 And it's all over now, Baby Blue

12-string electric guitar:
 Asus4Dsus4
e||-------12----12----12-|-----------------------||
b||-----15----15---15----|------15-----15----15--||
g||*--14----14-----------|---14-----14----14----*||
d||*---------------------|-17-----17------------*||
a||----------------------|-----------------------||
E||----------------------|-----------------------||


Asus4/Dsus4/Asus4/Dsus4/D (open)

 AD
Leave your steppin' stone behind girl, start anew
 AD
Forget about those debts you left, they will not follow you

 EmGD
The empty-handed painter from your streets
 EmGD
Is drawing crazy patterns on your sheets
F#m A N.C.
Look out babe, the carpets foldin' over you

 EmGD
And it's all over now, Baby Blue

F# A N.C.
Well, strike another match, girl, don't start anew, don't start anew
 EmGD
Cause, it's all over now, Baby Blue
 EmGD
Yeah, it's all over all over now, Baby Blue
 EmGD
Yeah, Yeah, it's all over all over all over, Baby Blue

12-string electric guitar:

 Asus4/Dsus4/Asus4/Dsus4/D6/9
D6/9 Chord
 -16-
 -X-
-X-

A garage classic by grainofsand


A Asus4 D Dsus2 Dsus4 Em G
variations - click chord images
Transpose chords:
Tuning:
Cool service:
View: Size:
A  A  A
Rating:
Layout:
  • Currently 2.7/5 Stars.
  • 1
  • 2
  • 3
  • 4
  • 5
 
Accuracy:
  • Currently 2.6/5 Stars.
  • 1
  • 2
  • 3
  • 4
  • 5
 
click stars to rate
Chordie recommends:
Check out JamPlay.com for online video guitar lessons
Songbook:
Login to add this song to your songbook
Support the artist
Preview/buy this song
MSN Music
Why this non-profit ad?

 
login to add comments/video/corrections