Arms Around Your Love

Chris Cornell

 AmAm/GFmaj
Verse 1:
 AmAm/G
With his arms around your love     
 CBbFmajAmAm/GFmaj
 Oh no, here comes the pain that you can't ignore          
 AmAm/G
With his arms around your girl   
 CBbFmajAmAm/G
 He'll do all of the things you didn't do before   
 CBbFmajDDsus4D
 You had every chance, but you closed the door..             

Chorus:
 FmajC/G
Now you're just gonna have to take it       
 AmAm7
(As if you didn't know)
 FmajC/G
She's gonna make you pay for it      
 AmAm7
(At a price you can't afford)
 C
You're just gonna have to take it
 FmajC
With his arms around your love
 FmajC
With his arms around your love
 FmajAmAm/GFmaj
With his arms around your love         

 AmAm/GFmaj
Verse 2:
 AmAm/G
Pretend that you don't mind    
 CBbFmajAmAm/GFmaj
But you know everything that you left behind          
 AmAm/G
And it would have been alright   
 CBbFmajAmAm/G
If you'd gave half of the praise that you held inside    
 CBbFmajDDsus4D
 You thought she'd hang around for the ride...             

Chorus:
 FmajC/G
Now you're just gonna have to take it      
 AmAm7
(As if you didn't know)
 FmajC/G
She's gonna make you pay for it      
 AmAm7
(At a price you can't afford)
 C
You're just gonna have to take it
 FmajC
With his arms around your love
 FmajC
With his arms around your love
 FmajA
With his arms around your love

Bridge:
 EF#mFmaj
   Coming clean feels so dangerous   
 F#m
Just a little bit would have been enough
 BDE
 But you never said all the words caught in your head
 DE
As if your heart was dead
 DEAmAm/GFmaj
Well now its surely bled and broken up            

 AmAm/GFmaj
Verse 3:
 AmAm/G
And it would have been alright   
 CBbFmajAmAm/G
If you'd gave half of the praise that you held inside    
 CBbFmajDDsus4D
 You thought she'd hang around for the ride...             

Chorus:
 FmajC/G
Now you're just gonna have to take it      
 AmAm7
(As if you didn't know)
 FmajC/G
She's gonna make you pay for it      
 AmAm7
(At a price you can't afford)
 C
You're just gonna have to take it
 FmajC
With his arms around your love
 FmajC
With his arms around your love
 FmajC
With his arms around your love
 FmajC
With his arms around your love
 FmajC
With his arms around your love
 FmajC
With his arms around your love
 FmajA
With his arms around your love

====================================================

Chords:
 AmAm/GFmajCBbDDsus4C/GAm7AEF#mB
e--0--0----1----0--1--2--3-----0---3---0--0--2---2--|
B--1--1----1----1--3--3--3-----1---1---2--0--2---4--|
G--2--2----2----0--3--2--2-----0---2---2--1--2---4--|
D--2--2----3----2--3--0--0-----2---2---2--2--4---4--|
A--0--x----3----3--1-----------3---0---0--2--4---2--|
D-----3----1-------------------3----------0--2------|


Fills:

Intro/Melody:
[-----------------|-----------------]
[-----------------|-----------------]
[-2/5-2/7-5/9-----|-2/5-2/7-12\9----]
[-----------------|-----------------]
[-----------------|-----------------]
[-----------------|-----------------]


Bridge ending(something like this):
[----------10-12--|-----------------]
[-10-12-13--------|-10-8-----8/13-10]
[-----------------|------9-7--------]
[-----------------|-----------------]
[-----------------|-----------------]
[-----------------|-----------------]


Outro:
[-------8---12----|-------8---12----]
[---8-------------|---8-------------]
[-9---9---9-------|-9---9---9-------]
[-----------------|-----------------]
[-----------------|-----------------]
[-----------------|-----------------]


====================================================

Listen to the song to figure out the strumming.

Enjoy!


A Am Am7 B Bb C C/G D Dsus4 E F#m Fmaj
variations - click chord images
Transpose chords:
Tuning:
Cool service:
View: Size:
A  A  A
Rating:
Layout:
  • Currently 2.7/5 Stars.
  • 1
  • 2
  • 3
  • 4
  • 5
 
Accuracy:
  • Currently 3.1/5 Stars.
  • 1
  • 2
  • 3
  • 4
  • 5
 
click stars to rate
Chordie recommends:
Learn how to play guitar at JamPlay.com
Songbook:
Login to add this song to your songbook
Support the artist
Preview/buy this song
MSN Music
Why this non-profit ad?

 
login to add comments/video/corrections