Guitar Tabs, Chords and Lyrics


Auberge   Chris Rea



 Okay im submitting this tab because theres only one on here and its wrong. Im not
a fan of Chris Rea but i heard this song and it had a cool riff and all. I just tabbed it
ear, its my first tab but im sure its 99.99999999 percent correct (you get the idea!) 
to song for timing and enjoy!

Intro:
Lots of slides in Amin/maj pentatonic scale with bottleneck, and some pull offs.

Key:
U - Upstroke
D - Downstroke

Main Riff:
 ------------------------------------------------|
 ---------------5--------------------------------|
 -----5-7-5-7-5------5-7-5-7-5-----5-------------|
 --7---------------7------------7----------------|
 ------------------------------------------------|
 ------------------------------------------------|

 -----------------------------------------------|
 ----------------5----------------5-------------|
 -----5-7-5-7-5---------5-7-5-7-5---7-5---------|
 ---7----------------7------------------7-------|
 -----------------------------------------------|
 -----------------------------------------------|

During Verse:
   U  U  D  D
 -----------------------------------------------|
 -----------------------------------------------|
 -----------------------------------------------|
 ---7--7--7--7----------------------------------|
 ---7--7--7--7----------------------------------|
 ---5--5--5--5----------------------------------|

Pre-Chorus:
"This is the naked truth...."

 ------------------------------------------------|
 ------------------------------------------------|
 ------------------------------------------------|
 ---12-----10------------------------------------|
 ---12-----10------------------------------------|


Important: The song above is NOT stored on the Chordie server. The original song is hosted at www.guitaretab.com. Chordie works as a search engine and provides on-the-fly formatting. Chordie does not index songs against artists'/composers' will. To remove this song please click here.

This song is displayed as text-only. Transposing and tuning is only available for chordpro-songs.

Login - add to songbook

Rating click stars to rate

Layout
Accuracy

SHARE PAGE  




You need to log in to post comments