Guitar Tabs, Chords and Lyrics


The Wonderful Cross   Chris Tomlin



-------------------------------------------------------------------------------
			     The Wonderful Cross - Chris Tomlin and Matt Redman
-------------------------------------------------------------------------------
Tabbed by: Seth Nelson
Email: nelsonsh@etown.edu

Tuning: Standard



e|---------------------------------------------------------------------------|
B|---------------------------------------------------------------------------|
G|---------------------------------------------------------------------------|
D|----0---0-22/4---22/4-5---4-22/4---4-4-5-5--4--2p0--0-----0---2------------|
A|-------------------------------------------------------4-------------------|
E|---------------------------------------------------------------------------|

then the first verse starts...

e|---------------------------------------------------------------------------|
B|---------------------------------------------------------------------------|
G|---------------------------------------------------------------------------|
D|----0---0-22/4---22/4-5---4-22/4---4-4-5-5--4--2p0--0-----0---2------------|
A|-------------------------------------------------------4-------------------|
E|---------------------------------------------------------------------------|


e|---------------------------------------------------------------------------|
B|---------------------------------------------------------------------------|
G|---------------------------------------------------------------------------|
D|----0---0-2-4---2-4-5---4-2-4---4-4-4-2--0---2---4-2p0-0-------------------|
A|---------------------------------------------------------------------------|
E|---------------------------------------------------------------------------|



| /  slide up
| \  slide down
| h  hammer-on
| p  pull-off




From what I can tell, there's supposed to be a pulsating D being plucked 
on quarter note beats throughout the intro and verses.  
I also believe all the verses are just D chords, 


Important: The song above is NOT stored on the Chordie server. The original song is hosted at www.guitaretab.com. Chordie works as a search engine and provides on-the-fly formatting. Chordie does not index songs against artists/composers will. To remove this song please click here.

This song is displayed as text-only. Transposing and tuning is only available for chordpro-songs.

Login - add to songbook

Rating click stars to rate

Layout
Accuracy

SHARE PAGE  




You need to log in to post comments