Chordie logo


Face   Christian Death


A| -4--4-4-4---4--4-4-4---2--2-2-2---0---0-2-0-2--- (x3)



A| -4--4-4-4---5--5-5-5--



=-=-=-=-=-=-=-=-=-=-=-=- TABLATURE EXPLANATION -=-=-=-=-=-=-=-=-=-=-=-=-=



=-=-=-=-=-=-=-=-=-=-=-=-=-=-=-=-=-=-=-=-=-=-=-=-=-=-=-=-=-=-=-=-=-=-=-=-=



e:-----|-------------------------------------|



B:--6--|-------------------------------------|



G:--6--|-------------------------------------|



D:--6--|-------------------------------------|



A:--4--|-4444-4444444-444-2222-222-000-2-0-2-|



E:-----|-------------------------------------|



e:----------------------------------------|-------------------------------|



B:--------------------------7-6-4---------|-------------------------------|



G:--------------------------------7-6-4---|-------------------------------|



D:--------------------------------------7-|----------19-------19-------19-|



A:-4444-4444444-444-5555-55---------------|-4/5s-/17----17-17----17-17----|



E:----------------------------------------|-------------------------------|



e:--------------------|-----------------------------|------------------------|



B:--------------------|-----------------------------|------------------------|



G:--------------------|-6/7s-/14s-------14-------14-|------------------------|



D:------7-----7-----5-|-----------12-12----12-12----|------------------------|



A:-4/5s---5-5---5-5---|-----------------------------|-4\2-2222-222-000-2-0-2-|



E:--------------------|-----------------------------|------------------------|



e:------10-9----9-10/14-|-13-----14-15-14-12-------------|



B:-----------12---------|-14-----15----------15-14-12----|



G:-6/7s-----------------|-13-13/-14-------------------14-|



D:----------------------|--------------------------------|



A:----------------------|--------------------------------|



E:----------------------|--------------------------------|



e:---------------------------------------|--------------------|



B:---------------------------------------|--------------------|



G:---------------------------------------|--------------------|



D:---------------------------------------|--------------------|



A:-4444-4444444-444-2222-222-------------|-44-22-00-22-44-5-4-|



E:---------------------------55-44-22-00-|--------------------|



e:-13---------------14--------------13---------------14--------------------|



B:-14---------------15--------------14---------------15--------------------|



G:-13---------------14--------------13---------------14------7-6-4---------|



D:-----------------------------------------------------------------7-6-4---|



A:-----------------------------------------------------------------------7-|



E:-------------------------------------------------------------------------|



Important: The song above is NOT stored on the Chordie server. The original song is hosted at www.guitaretab.com. Chordie works as a search engine and provides on-the-fly formatting. Chordie does not index songs against artists/composers will. To remove this song please click here.

This song is displayed as text-only. Transposing and tuning is only available for chordpro-songs.

Login - add to songbook

Rating click stars to rate

Layout
Accuracy

SHARE PAGE  




You need to log in to post comments