Guitar Tabs, Chords and Lyrics


Amazing Grace  Christian

e|------------10----10--------------------------10----10-------13----13-13----------------------|


B|--------11-----11-----13-11---------------11-----11----13/15----15-------15/13-11--15p13-11---|


G|--10-12----------------------12-10--10h12-----------------------------------------------------|

D|----------------------------------------------------------------------------------------------|
A|----------------------------------------------------------------------------------------------|
E|----------------------------------------------------------------------------------------------|
e|------------------10----10-------------------------------------------------|
B|---------------11----11-----13--11-----------------------------------------|
G|--12-10--10h12-------------------------------------------------------------|
D|---------------------------------------------------------------------------|
A|---------------------------------------------------------------------------|
E|---------------------------------------------------------------------------|
A[G]mazing Grace, how [C]sweet the sound,
That [G]saved a wretch like [D7]me.
I [G]once was [G7]lost but [C]now am [G]found,
Was [G]blind, but [D7]now I [G]see.

Important: The song above is NOT stored on the Chordie server. The original song is hosted at www.guitaretab.com. Chordie works as a search engine and provides on-the-fly formatting. Chordie does not index songs against artists'/composers' will. To remove this song please click here.

Text color:
Chord color:
Chord grids: 
Font size:    
Page size: 

C D7 G G7
variations - click chord images

Login - add to songbook

Transpose chords

Tuning

Rating click stars to rate

Layout
Accuracy

SHARE PAGE  




You need to log in to post comments