Chordie logo

Angels We Have Heard On High   Misc. Christmas



This tab is for guitar 1 only, I'm not good enough to tab the 2nd guitar.


Intro

e----------------------------------------------------------------------------|
b----------------------------------------------------------------------------|
g-55555555----------55555555----------5-x----------------55555555-55555555-5-|
D-55555555-33333333-55555555-55555555-5-x-33-x-33-x-55-x-33333333-33333333-5-|
A-33333333-33333333-33333333-55555555-3-x-33-x-33-x-55-x-33333333-33333333-3-|
E----------11111111----------33333333-----11-x-11-x-33-x---------------------|
                                                                  ********
Verse 1

e------------------------------------|
b------------------------------------|
g-555555555555555555555555------5555-|
D-555555555555555555555555-5555-5555-|  X2
A-333333333333333333333333-5555-3333-|
E--------------------------3333------|
  ************************ **** ****

Chorus 1

e---------------------------------------------------------      ---|
b---------------------------------------------------------      ---|
g--55555555----------55555555----------5-x----------------      -5-|
D--55555555-33333333-55555555-55555555-5-x-33-x-33-x-55-x-  X2  -5-|  
A--33333333-33333333-33333333-55555555-3-x-33-x-33-x-55-x-      -3-|
E-----------11111111----------33333333-----11-x-11-x-33-x-      ---|


Verse 2

e---  ------------------------------------|
b---  ------------------------------------|
g-5-  -555555555555555555555555------5555-|
D-5-  -555555555555555555555555-5555-5555-|  X2
A-3-  -333333333333333333333333-5555-3333-|
E---  --------------------------3333------|
       ************************ **** ****

Chorus 2

e----------------------------------------------------------|
b----------------------------------------------------------|
g--55555555----------55555555----------5-x-----------------|
D--55555555-33333333-55555555-55555555-5-x-33-x-33-x-55-x--|  
A--33333333-33333333-33333333-55555555-3-x-33-x-33-x-55-x--|
E-----------11111111----------33333333-----11-x-11-x-33-x--|
                                                          
e---------------------------------------------------|
b---------------------------------------------------|
g--55-55~-------_55-55~------- 5-x----------------5-|
D--55-55~-33-33~-55-55~-55-55~-5-x-33-x-33-x-55-x-5-|  
A--33-33~-33-33~-33-33~-55-55~-3-x-33-x-33-x-55-x-3-|
E---------11-11~--------33-33~-----11-x-11-x-33-x---|


Short Break

e---------------------------------------|
b---------------------------------------|
g-5-x-----------------------------------|
D-5-x-33-x-33-x-55-x-33333333-555555555-|  
A-3-x-33-x-33-x-55-x-33333333-555555555-|
E-----11-x-11-x-33-x-11111111-333333333-|


Final Chorus


e---------------------------------------------------------|
b---------------------------------------------------------|
g--55555555----------55555555----------5-x----------------|
D--55555555-33333333-55555555-55555555-5-x-33-x-33-x-55-x-|  

A--33333333-33333333-33333333-55555555-3-x-33-x-33-x-55-x-|
E-----------11111111----------33333333-----11-x-11-x-33-x-|


e--------------------------------------|
b--------------------------------------|
g------------------------------------5-|
D--5555555555555555-5555555555555555-3-|  
A--5555555555555555-3333333333333333-3-|
E--2222222222222222-3333333333333333---|


Important: The song above is NOT stored on the Chordie server. The original song is hosted at www.guitaretab.com. Chordie works as a search engine and provides on-the-fly formatting. Chordie does not index songs against artists/composers will. To remove this song please click here.

This song is displayed as text-only. Transposing and tuning is only available for chordpro-songs.

Login - add to songbook

Rating click stars to rate

Layout
Accuracy

SHARE PAGE  

You need to log in to post comments