Guitar Tabs, Chords and Lyrics


Televicio  Cielo Razzo

e-----------------------------------------------------|


B-----------------------------------------------------|


G-7-7--6-6-----------------7-7--6-6-------------------|

D-7-7--6-6--4-4------------7-7--6-6--4-4--------------|
A-5-5--4-4--4-4------------5-5--4-4--4-4--------------|
E-----------2-2-0-2-5-4-0------------2-2-2-5-2-4-5-2--|
e------------------------------------------------------|
B------------------------------------------------------|
G-7-7--6-6-----------------7-7-6-6------------7-7------|
D-7-7--6-6--4-4------------7-7-6-6--4-4-7-7---7-7------|
A-5-5--4-4--4-4------------5-5-4-4--4-4-7-7---5-5------|
E-----------2-2-0-2-5-4-0-----------2-2-5-5------------|
e----------------------------------------------------|
B----------------------------------------------------|
G-7-7-7-7-7---10-9-9/10--7-7-7-7-7---10-9-9/10-------|
D-7-7-7-7-7---10-9-9/10--7-7-7-7-7---10-9-9/10-------|
A-5-5-5-5-5---8--7-7/8---5-5-5-5-5---8--7-7/8--------|
E----------------------------------------------------|
e----------------------------------------------------|
B----------------------------------------------------|
G-7-7-7-7-7---10-9-9/10------7-7-7-7-7---------------|
D-7-7-7-7-7---10-9-9/10------7-7-7-7-7---------------|
A-5-5-5-5-5---8--7-7/8-------5-5-5-5-5---3-2---------|
E--------------------------------------------5-3-2-0-|
e-----------------------------------------------------|
B-----------------------------------------------------|
G-7-7--6-6-----------------7-7--6-6-------------------|
D-7-7--6-6--4-4------------7-7--6-6--4-4--------------|
A-5-5--4-4--4-4------------5-5--4-4--4-4--------------|
E-----------2-2-0-2-5-4-0------------2-2-2-5-2-4-5-2--|
e-----------------------------------------------------|
B-----------------------------------------------------|
G-7-7--6-6-----------------7-7-6-6--------------------|
D-7-7--6-6--4-4------------7-7-6-6--4-4---------------|
A-5-5--4-4--4-4------------5-5-4-4--4-4---------------|
E-----------2-2-0-2-5-4-0-----------2-2---------------|
[D]Voy perdiendo el rumbo y la voz
demasiado tarde para ext[Am]rañarse amor.
[D]Fue la excusa tuya quizás,
fue volver a ser un espectro s[Am]in tu sal,
[Cm]un laberinto con red,
re[Eb]cogiendo la bandera fui[Bb]ste tan fiel.  [Dm]   [-]  [D2]   [-]  [Am]
Riff A

[D]Vas perdiendo lo que buscás,
escondiste el hueso y todo te s[Am]alió mal.
[D]Internado nunca me ví,
la cordura se transforma e[Am]n la cicatriz.
[Cm]Y ese puente viejo calló
y [Eb]ahora sigo envejeciendo en [Bb]televisión

[Dm]Manicomi[D2]os que drena[Dm]n dolor;[D2]
[Dm]libertad[D2] encubiert[Dm]a.
Es que yo solo rom[A]pi el espe[G]jo de tu alm[C]a
y otra ve[F]z a[G]nduve [A]recorriendo[G] los rincones de[F] tu silencio
Riff B

[D]Voy perdiendo el rumbo y la voz
demasiado tarde para ext[Am]rañarse amor.
[D]Fue la excusa tuya quizás,
fue volver a ser un espectro s[Am]in tu sal,
[Cm]un laberinto con red,
re[Eb]cogiendo la bandera fui[Bb]ste tan fiel.

[Dm]Manicomi[D2]os que drena[Dm]n dolor;[D2]
[Dm]libertad[D2] encubiert[Dm]a.
Es que yo solo rom[A]pi el espe[G]jo de tu alm[C]a
y otra ve[F]z a[G]nduve [A]recorriendo[G] los rincones de[F] tu silencio
         solo romp[A]i el espej[G]o de tu alma[C]
y otra ve[F]z a[G]nduve [A]recorriendo[G] los rincones de[F] tu silencio
Riff c

Logan_RosarioCentral

Important: The song above is NOT stored on the Chordie server. The original song is hosted at www.guitaretab.com. Chordie works as a search engine and provides on-the-fly formatting. Chordie does not index songs against artists'/composers' will. To remove this song please click here.

Text color:
Chord color:
Chord grids: 
Font size:    
Page size: 

A Am Bb C Cm D D2 Dm Eb F G
variations - click chord images

Login - add to songbook

Transpose chords

Tuning

Rating click stars to rate

Layout
Accuracy

SHARE PAGE  




You need to log in to post comments