Guitar Tabs, Chords and Lyrics


Macho De Monte Suite   Cienfue



Artista: Cienfue
Canción: Macho de Monte Suite
Tab por: Joriel Vásquez 7/10/08

Q xopá gente! Bueno este es mi tab de la super canción :D de el 100fuegos "Macho de 
Suite" acepto sugerencias y dejen sus comments, se les apreciará mucho sus ratings. Les debo 
solo. ;)

Intro:
e|----------------------------------------------------------------|
B|-----------------------------------------------10---------------|
G|---------------------9------9-------11------11----11------------|
D|------9------9--7-10---7-10----9-13----9-13----------13-9-------|
A|-7-10---7-10----------------------------------------------12-10-|
E|----------------------------------------------------------------|

e|-------------------------------------------|
B|-10---------------10-----------------------|
G|----11---------------11--------------------|
D|-------13-9-------------13-9---------------|
A|------------12-10------------12-10~~~~-----|
E|--------------------------------------11\--|

Rítmica:
e|-------|-------------|
B|-------|-------------|
G|-------|-------------|
D|-------|-4----4----4-|
A|-2-2-2-|-2----2----2-|
E|-0-0-0-|-------------|

Riff 1:
e|---------------------------------------------------|
B|---------------------------------------------------|
G|---------------------------------------2-----------|
D|-------------------------------1---4-----4-1-------|
A|---------2---0--0---3---0--2-----------------3-2-0-|
E|-0---3---------------------------------------------|

Riff 2:
e|------------------------------------------------------|
B|-------------------10----------0-10-7---7-------------|
G|---12------12---------12--11----------8---8-5---------|
D|-9-----9-9-----9-9----------------------------9-7-5---|
A|----------------------------------------------------7-|
E|------------------------------------------------------|

e|-------------|
B|-------------|
G|-2-----------|
D|---4-1-------|
A|-------3-2-0-|
E|-------------|

Rítmica:
e|---|---|---|
B|---|---|---|
G|---|---|---|
D|-9-|-2-|-4-|
A|-7-|-0-|-2-|
E|---|---|---|

*Toca el Intro
*Toca el Riff 1
*Toca el Riff 2

Interlude:
e|---------------------------------------|
B|---------0-------1-----------0-------0-|
G|-----0--------2----------2--------2----| "Y si el fuego me quema..."
D|-2---------2---------1---------1-------|
A|---------------------------------------|
E|---------------------------------------|

e|---------------------------------------|
B|---------------------------------------|
G|---------0-------2-----------2-------2-| "Si en el agua te mojas..."
D|-----2--------2----------1--------1----|
A|-2---------2---------2---------2-------|
E|---------------------------------------|

e|-------------|
B|-------------|
G|-------------| "Y es que tu amor me duele..."
D|-4----4----4-|
A|-2----2----2-|
E|-------------|

e|----------------------------------|
B|----------------------------------|
G|-2--------------------------------|
D|---4-1--------9-------2-----4-----|
A|-------3-2-0--7-------0-----2-----|
E|----------------------------------|

**Solo**

Rítmica:
e|---|---|---|
B|---|---|---|
G|---|---|---|
D|-9-|-2-|-4-|
A|-7-|-0-|-2-|
E|---|---|---|

Outro:
e|---------------------------------------------------|
B|---------------------------------------------------|
G|---------------------------------------2-----------|
D|-------------------------------1---4-----4-1-------|
A|---------2---0--0---3---0--2-----------------3-2-0-|
E|-0---3---------------------------------------------|

e|------------------------------------------0--------|
B|------------------------------------------0--------|
G|-2-----------2----------------------------0--------|
D|---4-1---------4-1------------------------2--------|
A|-------3-2-0-------3-2-0------------------2--------|
E|-------------------------/3~----11\~------0--------|

Comenten y den su rating al tab por favor.
Estoy trabajando en la versión Guitar Pro.

;D Saludos y apoyen lo nacional!


PTY 507

This artist does exist he's indie, has 2 albums already, he uses myspace.com/cienfue as 
site.



Important: The song above is NOT stored on the Chordie server. The original song is hosted at www.guitaretab.com. Chordie works as a search engine and provides on-the-fly formatting. Chordie does not index songs against artists'/composers' will. To remove this song please click here.

This song is displayed as text-only. Transposing and tuning is only available for chordpro-songs.

Login - add to songbook

Rating click stars to rate

Layout
Accuracy

SHARE PAGE  




You need to log in to post comments