eToCache5 = ""; ?> Salvation by Citizen Cope - guitar chords, guitar tabs and lyrics - chordie

Salvation

Citizen Cope

 BF#BEG#C#
....= Palm Muting
~= hold note
x= mute/Pick scrape
(_)= note optionally played

Played fast

Intro/Verse
Gtr1 and 2 match eachother
-----------------------------------|
-----------------------------------|
-----------------------------------|
-000--------(3)--------------------|
-000-00000-003--000(00)------------|
-000-00000-003--000-006532-5321----| X6


Pre-Chorus
Gt1 and Gtr2 match eachother
----------------------------------------|
----------------------------------------|
----------------------------------------|
----------------------------------------|
-00-10-010-00----------00-10-010-0321---|
-00-10-010-006532-5321-00-10-010-0321---| x1


Repeat Verse x4
Repeat Pre-Chrous x2

Chorus
guitars match
---------------------------------------|
---------------------------------------|
---------------------------------------|
-5-5-xx-x-5-5-xx-x-1-1-xx-x-1111-3333--|
-5-5-xx-x-5-5-xx-x-1-1-xx-x-1111-3333--|
-5-5-xx-x-5-5-xx-x-1-1-xx-x-1111-3333--| x4


Solo
Gtr 1 is yet to come AND IT WILL!
Gtr2 during solo
------------------------------------------------|
------------------------------------------------|
------------------------------------------------|
-55-55-5-5--33-33-3-3--11-11-1-1--00-00-0-0-----|
-55-55-5-5--33-33-3-3--11-11-1-1--00-00-0-0-----|
-55-55-5-5--33-33-3-3--11-11-1-1--00-00-0-0-----|


Repeat Verse x6
Repeat Pre Chorus X4

Part before last Chorus
-------------------------------------|
-------------------------------------|
-------------------------------------|
-5~-----------555555-----------------|
-5~------55555555555-----------------|
-5~--555555555555555-----------------|


Repeat Chorus X4

Outro
Gtr.1
Five Finger Death Punch
Salvation

Tuning: Drop B (low to High)
 BF#BEG#C#
....= Palm Muting
~= hold note
x= mute/Pick scrape
(_)= note optionally played

Played fast

Intro/Verse
Gtr1 and 2 match eachother
-----------------------------------|
-----------------------------------|
-----------------------------------|
-000--------(3)--------------------|
-000-00000-003--000(00)------------|
-000-00000-003--000-006532-5321----| X6

..........

Pre-Chorus
Gt1 and Gtr2 match eachother
----------------------------------------|
----------------------------------------|
----------------------------------------|
----------------------------------------|
-00-10-010-00----------00-10-010-0321---|
-00-10-010-006532-5321-00-10-010-0321---| x1

.........

Repeat Verse x4
Repeat Pre-Chrous x2

Chorus
guitars match
---------------------------------------|
---------------------------------------|
---------------------------------------|
-5-5-xx-x-5-5-xx-x-3-3-xx-x-1111-3333--|
-5-5-xx-x-5-5-xx-x-3-3-xx-x-1111-3333--|
-5-5-xx-x-5-5-xx-x-3-3-xx-x-1111-3333--| x4


Solo
Gtr 1 is yet to come AND IT WILL!
Gtr2 during solo
------------------------------------------------|
------------------------------------------------|
------------------------------------------------|
-55-55-5-5--33-33-3-3--11-11-1-1--00-00-0-3333--|
-55-55-5-5--33-33-3-3--11-11-1-1--00-00-0-3333--|
-55-55-5-5--33-33-3-3--11-11-1-1--00-00-0-3333--|


Repeat Verse x6
Repeat Pre Chorus X4

Part before last Chorus
-------------------------------------|
-------------------------------------|
-------------------------------------|
-5~-----------555555-----------------|
-5~------55555555555-----------------|
-5~--555555555555555-----------------|

.............

Repeat Chorus X4

Outro
Gtr.1
----------------------------------------------------------------------|
--------------------16------------------16----------------------------|
12--12-121415-12-12---1514-12-12 121415---1514-151410-----------------|
----------------------------------------------------------------------|
----------------------------------------------------------------------|
----------------------------------------------------------------------| X2

Gtr 2 plays Chorus X2

OVERALL ORDER
Verse X6
Pre-Chorus X1
Verse X4
Pre-Chorus X2
Chorus X4
Solo
Verse X6
Pre-Chorus X4
Part before last Chorus
Chorus X4
Outro X2


B C# E F# G#
variations - click chord images
Transpose chords:
Tuning:
Cool service:
View: Size:
A  A  A
Rating:
Layout:
  • Currently 2.4/5 Stars.
  • 1
  • 2
  • 3
  • 4
  • 5
 
Accuracy:
  • Currently 2.9/5 Stars.
  • 1
  • 2
  • 3
  • 4
  • 5
 
click stars to rate
Chordie recommends:
Get acoustic guitar lessons and electric guitar lessons at JamPlay.com
Songbook:
Login to add this song to your songbook
Support the artist
Preview/buy this song
MSN Music
Why this non-profit ad?

 
login to add comments/video/corrections