Guitar Tabs, Chords and Lyrics


We Got The Better Bomb   Unknown



Civilian - We Got The Better Bomb
Tabbed By: Art Corella
EMail: shuvel88@yahoo.com

Date: Sept, 25 2002


  this song is dropped D tuning,  I promise this song is at least
95% correct.

-----------------------------------------------------------------
-----------------------------------------------------------------
-----------------------------------------------------------------
-------------------3h5-------------------------------------------
-0-xx--3--5--xxxx-------3h5-------0-xx--5p3----------------------
-0-xx--------xxxx------------3h5--0-xx------5p3-3h5-5p3-3h5------

-----------------------------------------------------------------
-----------------------------------------------------------------
-----------------------------------------------------------------
-------------------3h5-------------------------------------------
-0-xx--3--5--xxxx-------3h5-------0-xx--5p3----------------------


Important: The song above is NOT stored on the Chordie server. The original song is hosted at www.guitaretab.com. Chordie works as a search engine and provides on-the-fly formatting. Chordie does not index songs against artists'/composers' will. To remove this song please click here.

This song is displayed as text-only. Transposing and tuning is only available for chordpro-songs.

Login - add to songbook

Rating click stars to rate

Layout
Accuracy

SHARE PAGE  




You need to log in to post comments